  0
SECTION
  2
HEADER
  9
$ACADVER
  1
AC1015
  9
$ACADMAINTVER
 70
    20
  9
$DWGCODEPAGE
  3
ANSI_932
  9
$INSBASE
 10
0.0
 20
0.0
 30
0.0
  9
$EXTMIN
 10
-164.8416782790082
 20
-552.262649460269
 30
-0.0015258207003583
  9
$EXTMAX
 10
375.1912807054052
 20
250.5878803904434
 30
0.0000000349246037
  9
$LIMMIN
 10
0.0
 20
0.0
  9
$LIMMAX
 10
0.0
 20
0.0
  9
$ORTHOMODE
 70
     0
  9
$REGENMODE
 70
     1
  9
$FILLMODE
 70
     1
  9
$QTEXTMODE
 70
     0
  9
$MIRRTEXT
 70
     1
  9
$LTSCALE
 40
15.24
  9
$ATTMODE
 70
     1
  9
$TEXTSIZE
 40
0.0
  9
$TRACEWID
 40
1.0
  9
$TEXTSTYLE
  7
STANDARD
  9
$CLAYER
  8
DATA
  9
$CELTYPE
  6
ByLayer
  9
$CECOLOR
 62
   256
  9
$CELTSCALE
 40
1.0
  9
$DISPSILH
 70
     0
  9
$DIMSCALE
 40
1.0
  9
$DIMASZ
 40
0.18
  9
$DIMEXO
 40
0.0625
  9
$DIMDLI
 40
0.38
  9
$DIMRND
 40
0.0
  9
$DIMDLE
 40
0.0
  9
$DIMEXE
 40
0.18
  9
$DIMTP
 40
0.0
  9
$DIMTM
 40
0.0
  9
$DIMTXT
 40
0.18
  9
$DIMCEN
 40
0.09
  9
$DIMTSZ
 40
0.0
  9
$DIMTOL
 70
     0
  9
$DIMLIM
 70
     0
  9
$DIMTIH
 70
     1
  9
$DIMTOH
 70
     1
  9
$DIMSE1
 70
     0
  9
$DIMSE2
 70
     0
  9
$DIMTAD
 70
     0
  9
$DIMZIN
 70
     0
  9
$DIMBLK
  1

  9
$DIMASO
 70
     1
  9
$DIMSHO
 70
     1
  9
$DIMPOST
  1

  9
$DIMAPOST
  1

  9
$DIMALT
 70
     0
  9
$DIMALTD
 70
     2
  9
$DIMALTF
 40
25.4
  9
$DIMLFAC
 40
1.0
  9
$DIMTOFL
 70
     0
  9
$DIMTVP
 40
0.0
  9
$DIMTIX
 70
     0
  9
$DIMSOXD
 70
     0
  9
$DIMSAH
 70
     0
  9
$DIMBLK1
  1

  9
$DIMBLK2
  1

  9
$DIMSTYLE
  2
STANDARD
  9
$DIMCLRD
 70
     0
  9
$DIMCLRE
 70
     0
  9
$DIMCLRT
 70
     0
  9
$DIMTFAC
 40
1.0
  9
$DIMGAP
 40
0.09
  9
$DIMJUST
 70
     0
  9
$DIMSD1
 70
     0
  9
$DIMSD2
 70
     0
  9
$DIMTOLJ
 70
     1
  9
$DIMTZIN
 70
     0
  9
$DIMALTZ
 70
     0
  9
$DIMALTTZ
 70
     0
  9
$DIMUPT
 70
     0
  9
$DIMDEC
 70
     4
  9
$DIMTDEC
 70
     4
  9
$DIMALTU
 70
     2
  9
$DIMALTTD
 70
     2
  9
$DIMTXSTY
  7
STANDARD
  9
$DIMAUNIT
 70
     0
  9
$DIMADEC
 70
     0
  9
$DIMALTRND
 40
0.0
  9
$DIMAZIN
 70
     0
  9
$DIMDSEP
 70
    46
  9
$DIMATFIT
 70
     3
  9
$DIMFRAC
 70
     0
  9
$DIMLDRBLK
  1

  9
$DIMLUNIT
 70
     2
  9
$DIMLWD
 70
    -2
  9
$DIMLWE
 70
    -2
  9
$DIMTMOVE
 70
     0
  9
$LUNITS
 70
     2
  9
$LUPREC
 70
     4
  9
$SKETCHINC
 40
0.1
  9
$FILLETRAD
 40
0.0
  9
$AUNITS
 70
     0
  9
$AUPREC
 70
     0
  9
$MENU
  1
acad
  9
$ELEVATION
 40
0.0
  9
$PELEVATION
 40
0.0
  9
$THICKNESS
 40
0.0
  9
$LIMCHECK
 70
     0
  9
$CHAMFERA
 40
0.0
  9
$CHAMFERB
 40
0.0
  9
$CHAMFERC
 40
0.0
  9
$CHAMFERD
 40
0.0
  9
$SKPOLY
 70
     0
  9
$TDCREATE
 40
2457163.626712963
  9
$TDUCREATE
 40
2457163.251712963
  9
$TDUPDATE
 40
2457163.628241667
  9
$TDUUPDATE
 40
2457163.253241667
  9
$TDINDWG
 40
0.0003366088
  9
$TDUSRTIMER
 40
0.0003365741
  9
$USRTIMER
 70
     1
  9
$ANGBASE
 50
0.0
  9
$ANGDIR
 70
     0
  9
$PDMODE
 70
     1
  9
$PDSIZE
 40
-2.0
  9
$PLINEWID
 40
0.0
  9
$SPLFRAME
 70
     0
  9
$SPLINETYPE
 70
     6
  9
$SPLINESEGS
 70
     8
  9
$HANDSEED
  5
2BB
  9
$SURFTAB1
 70
     6
  9
$SURFTAB2
 70
     6
  9
$SURFTYPE
 70
     6
  9
$SURFU
 70
     6
  9
$SURFV
 70
     6
  9
$UCSBASE
  2

  9
$UCSNAME
  2

  9
$UCSORG
 10
0.0
 20
0.0
 30
0.0
  9
$UCSXDIR
 10
1.0
 20
0.0
 30
0.0
  9
$UCSYDIR
 10
0.0
 20
1.0
 30
0.0
  9
$UCSORTHOREF
  2

  9
$UCSORTHOVIEW
 70
     0
  9
$UCSORGTOP
 10
0.0
 20
0.0
 30
0.0
  9
$UCSORGBOTTOM
 10
0.0
 20
0.0
 30
0.0
  9
$UCSORGLEFT
 10
0.0
 20
0.0
 30
0.0
  9
$UCSORGRIGHT
 10
0.0
 20
0.0
 30
0.0
  9
$UCSORGFRONT
 10
0.0
 20
0.0
 30
0.0
  9
$UCSORGBACK
 10
0.0
 20
0.0
 30
0.0
  9
$PUCSBASE
  2

  9
$PUCSNAME
  2

  9
$PUCSORG
 10
0.0
 20
0.0
 30
0.0
  9
$PUCSXDIR
 10
1.0
 20
0.0
 30
0.0
  9
$PUCSYDIR
 10
0.0
 20
1.0
 30
0.0
  9
$PUCSORTHOREF
  2

  9
$PUCSORTHOVIEW
 70
     0
  9
$PUCSORGTOP
 10
0.0
 20
0.0
 30
0.0
  9
$PUCSORGBOTTOM
 10
0.0
 20
0.0
 30
0.0
  9
$PUCSORGLEFT
 10
0.0
 20
0.0
 30
0.0
  9
$PUCSORGRIGHT
 10
0.0
 20
0.0
 30
0.0
  9
$PUCSORGFRONT
 10
0.0
 20
0.0
 30
0.0
  9
$PUCSORGBACK
 10
0.0
 20
0.0
 30
0.0
  9
$USERI1
 70
     0
  9
$USERI2
 70
     0
  9
$USERI3
 70
     0
  9
$USERI4
 70
     0
  9
$USERI5
 70
     0
  9
$USERR1
 40
0.0
  9
$USERR2
 40
0.0
  9
$USERR3
 40
0.0
  9
$USERR4
 40
0.0
  9
$USERR5
 40
0.0
  9
$WORLDVIEW
 70
     1
  9
$SHADEDGE
 70
     3
  9
$SHADEDIF
 70
    70
  9
$TILEMODE
 70
     1
  9
$MAXACTVP
 70
    64
  9
$PINSBASE
 10
0.0
 20
0.0
 30
0.0
  9
$PLIMCHECK
 70
     0
  9
$PEXTMIN
 10
1.000000000000000E+20
 20
1.000000000000000E+20
 30
1.000000000000000E+20
  9
$PEXTMAX
 10
-1.000000000000000E+20
 20
-1.000000000000000E+20
 30
-1.000000000000000E+20
  9
$PLIMMIN
 10
0.0
 20
0.0
  9
$PLIMMAX
 10
12.0
 20
9.0
  9
$UNITMODE
 70
     0
  9
$VISRETAIN
 70
     0
  9
$PLINEGEN
 70
     1
  9
$PSLTSCALE
 70
     0
  9
$TREEDEPTH
 70
  3020
  9
$CMLSTYLE
  2
Standard
  9
$CMLJUST
 70
     0
  9
$CMLSCALE
 40
1.0
  9
$PROXYGRAPHICS
 70
     1
  9
$MEASUREMENT
 70
     0
  9
$CELWEIGHT
370
    -1
  9
$ENDCAPS
280
     0
  9
$JOINSTYLE
280
     0
  9
$LWDISPLAY
290
     0
  9
$INSUNITS
 70
     0
  9
$HYPERLINKBASE
  1

  9
$STYLESHEET
  1

  9
$XEDIT
290
     1
  9
$CEPSNTYPE
380
     0
  9
$PSTYLEMODE
290
     1
  9
$FINGERPRINTGUID
  2
{6F7919CA-B12C-41F0-A1AE-D51122B79917}
  9
$VERSIONGUID
  2
{46D67E97-663D-44AF-88DB-8B6E2A11993C}
  9
$EXTNAMES
290
     1
  9
$PSVPSCALE
 40
0.0
  9
$OLESTARTUP
290
     0
  0
ENDSEC
  0
SECTION
  2
CLASSES
  0
CLASS
  1
ACDBDICTIONARYWDFLT
  2
AcDbDictionaryWithDefault
  3
ObjectDBX Classes
 90
        0
280
     0
281
     0
  0
CLASS
  1
MATERIAL
  2
AcDbMaterial
  3
ObjectDBX Classes
 90
     1153
280
     0
281
     0
  0
CLASS
  1
VISUALSTYLE
  2
AcDbVisualStyle
  3
ObjectDBX Classes
 90
     4095
280
     0
281
     0
  0
CLASS
  1
SCALE
  2
AcDbScale
  3
ObjectDBX Classes
 90
     1153
280
     0
281
     0
  0
CLASS
  1
TABLESTYLE
  2
AcDbTableStyle
  3
ObjectDBX Classes
 90
     4095
280
     0
281
     0
  0
CLASS
  1
MLEADERSTYLE
  2
AcDbMLeaderStyle
  3
ACDB_MLEADERSTYLE_CLASS
 90
     4095
280
     0
281
     0
  0
CLASS
  1
ACDBSECTIONVIEWSTYLE
  2
AcDbSectionViewStyle
  3
ObjectDBX Classes
 90
     1025
280
     0
281
     0
  0
CLASS
  1
ACDBDETAILVIEWSTYLE
  2
AcDbDetailViewStyle
  3
ObjectDBX Classes
 90
     1025
280
     0
281
     0
  0
CLASS
  1
DICTIONARYVAR
  2
AcDbDictionaryVar
  3
ObjectDBX Classes
 90
        0
280
     0
281
     0
  0
CLASS
  1
CELLSTYLEMAP
  2
AcDbCellStyleMap
  3
ObjectDBX Classes
 90
     1152
280
     0
281
     0
  0
CLASS
  1
ACDBPLACEHOLDER
  2
AcDbPlaceHolder
  3
ObjectDBX Classes
 90
        0
280
     0
281
     0
  0
CLASS
  1
LAYOUT
  2
AcDbLayout
  3
ObjectDBX Classes
 90
        0
280
     0
281
     0
  0
ENDSEC
  0
SECTION
  2
TABLES
  0
TABLE
  2
VPORT
  5
1D9
330
0
100
AcDbSymbolTable
 70
     1
  0
VPORT
  5
245
330
1D9
100
AcDbSymbolTableRecord
100
AcDbViewportTableRecord
  2
*ACTIVE
 70
     0
 10
0.0
 20
0.0
 11
1.0
 21
1.0
 12
105.1748012131985
 22
-150.0320150151637
 13
0.0
 23
0.0
 14
1.0
 24
1.0
 15
0.0
 25
0.0
 16
0.0
 26
0.0
 36
1.0
 17
0.0
 27
0.0
 37
0.0
 40
807.2043550108013
 41
2.362732919254658
 42
50.0
 43
0.0
 44
0.0
 50
0.0
 51
0.0
 71
     0
 72
  2000
 73
     1
 74
     1
 75
     0
 76
     0
 77
     0
 78
     0
281
     0
 65
     1
110
0.0
120
0.0
130
0.0
111
1.0
121
0.0
131
0.0
112
0.0
122
1.0
132
0.0
 79
     0
146
0.0
1001
ACAD_NAV_VCDISPLAY
1070
     3
  0
ENDTAB
  0
TABLE
  2
LTYPE
  5
1D6
330
0
100
AcDbSymbolTable
 70
    23
  0
LTYPE
  5
22B
330
1D6
100
AcDbSymbolTableRecord
100
AcDbLinetypeTableRecord
  2
ByBlock
 70
     0
  3

 72
    65
 73
     0
 40
0.0
  0
LTYPE
  5
22C
330
1D6
100
AcDbSymbolTableRecord
100
AcDbLinetypeTableRecord
  2
ByLayer
 70
     0
  3

 72
    65
 73
     0
 40
0.0
  0
LTYPE
  5
22D
330
1D6
100
AcDbSymbolTableRecord
100
AcDbLinetypeTableRecord
  2
CONTINUOUS
 70
     0
  3
Solid line
 72
    65
 73
     0
 40
0.0
  0
LTYPE
  5
24B
330
1D6
100
AcDbSymbolTableRecord
100
AcDbLinetypeTableRecord
  2
STYLE_06
 70
     0
  3

 72
    65
 73
     4
 40
1.041641235351562
 49
0.625
 74
     0
 49
-0.208282470703125
 74
     0
 49
0.069427490234375
 74
     0
 49
-0.1389312744140625
 74
     0
  0
ENDTAB
  0
TABLE
  2
LAYER
  5
1D3
330
0
100
AcDbSymbolTable
 70
     5
  0
LAYER
  5
225
102
{ACAD_XDICTIONARY
360
265
102
}
330
1D3
100
AcDbSymbolTableRecord
100
AcDbLayerTableRecord
  2
0
 70
     0
 62
     7
  6
CONTINUOUS
370
    -3
390
1E0
  0
LAYER
  5
244
102
{ACAD_XDICTIONARY
360
267
102
}
330
1D3
100
AcDbSymbolTableRecord
100
AcDbLayerTableRecord
  2
DATA
 70
     0
 62
     7
  6
CONTINUOUS
370
    -3
390
1E0
  0
LAYER
  5
25C
102
{ACAD_XDICTIONARY
360
269
102
}
330
1D3
100
AcDbSymbolTableRecord
100
AcDbLayerTableRecord
  2
HIBINO-BASE
 70
     0
 62
     7
  6
CONTINUOUS
370
    -3
390
1E0
  0
LAYER
  5
25D
102
{ACAD_XDICTIONARY
360
26B
102
}
330
1D3
100
AcDbSymbolTableRecord
100
AcDbLayerTableRecord
  2
SPEC
 70
     0
 62
     7
  6
CONTINUOUS
370
    -3
390
1E0
  0
LAYER
  5
25E
102
{ACAD_XDICTIONARY
360
26D
102
}
330
1D3
100
AcDbSymbolTableRecord
100
AcDbLayerTableRecord
  2
DIMNSIONS
 70
     0
 62
     7
  6
CONTINUOUS
370
    -3
390
1E0
  0
ENDTAB
  0
TABLE
  2
STYLE
  5
1D4
330
0
100
AcDbSymbolTable
 70
     3
  0
STYLE
  5
226
330
1D4
100
AcDbSymbolTableRecord
100
AcDbTextStyleTableRecord
  2
STANDARD
 70
     0
 40
0.0
 41
1.0
 50
0.0
 71
     0
 42
0.0
  3
txt
  4
BIGFONT.SHX
  0
ENDTAB
  0
TABLE
  2
VIEW
  5
1D7
330
0
100
AcDbSymbolTable
 70
     0
  0
ENDTAB
  0
TABLE
  2
UCS
  5
1D8
330
0
100
AcDbSymbolTable
 70
     0
  0
ENDTAB
  0
TABLE
  2
APPID
  5
1DA
330
0
100
AcDbSymbolTable
 70
     4
  0
APPID
  5
227
330
1DA
100
AcDbSymbolTableRecord
100
AcDbRegAppTableRecord
  2
ACAD
 70
     0
  0
APPID
  5
22E
330
1DA
100
AcDbSymbolTableRecord
100
AcDbRegAppTableRecord
  2
AcadAnnotative
 70
     0
  0
APPID
  5
279
330
1DA
100
AcDbSymbolTableRecord
100
AcDbRegAppTableRecord
  2
ACAD_NAV_VCDISPLAY
 70
     0
  0
APPID
  5
2B2
330
1DA
100
AcDbSymbolTableRecord
100
AcDbRegAppTableRecord
  2
ACAD_MLEADERVER
 70
     0
  0
ENDTAB
  0
TABLE
  2
DIMSTYLE
  5
1DB
330
0
100
AcDbSymbolTable
 70
     2
100
AcDbDimStyleTable
 71
     0
  0
DIMSTYLE
105
228
330
1DB
100
AcDbSymbolTableRecord
100
AcDbDimStyleTableRecord
  2
STANDARD
 70
     0
279
     2
340
226
  0
ENDTAB
  0
TABLE
  2
BLOCK_RECORD
  5
1D2
330
0
100
AcDbSymbolTable
 70
     0
  0
BLOCK_RECORD
  5
240
330
1D2
100
AcDbSymbolTableRecord
100
AcDbBlockTableRecord
  2
*Model_Space
340
243
  0
BLOCK_RECORD
  5
23C
330
1D2
100
AcDbSymbolTableRecord
100
AcDbBlockTableRecord
  2
*Paper_Space
340
23F
  0
ENDTAB
  0
ENDSEC
  0
SECTION
  2
BLOCKS
  0
BLOCK
  5
241
330
240
100
AcDbEntity
  8
0
100
AcDbBlockBegin
  2
*Model_Space
 70
     0
 10
0.0
 20
0.0
 30
0.0
  3
*Model_Space
  1

  0
ENDBLK
  5
242
330
240
100
AcDbEntity
  8
0
100
AcDbBlockEnd
  0
BLOCK
  5
23D
330
23C
100
AcDbEntity
 67
     1
  8
0
100
AcDbBlockBegin
  2
*Paper_Space
 70
     0
 10
0.0
 20
0.0
 30
0.0
  3
*Paper_Space
  1

  0
ENDBLK
  5
23E
330
23C
100
AcDbEntity
 67
     1
  8
0
100
AcDbBlockEnd
  0
ENDSEC
  0
SECTION
  2
ENTITIES
  0
LINE
  5
38
330
240
100
AcDbEntity
  8
HIBINO-BASE
  6
Continuous
 62
     7
100
AcDbLine
 10
-164.8252000440871
 20
250.5634281194188
 30
0.0
 11
375.1747999559128
 21
250.5634281194188
 31
0.0
  0
LINE
  5
39
330
240
100
AcDbEntity
  8
HIBINO-BASE
  6
Continuous
 62
     7
100
AcDbLine
 10
375.1747999559128
 20
-529.4365718805811
 30
0.0
 11
-164.8252000440871
 21
-529.4365718805811
 31
0.0
  0
LINE
  5
3A
330
240
100
AcDbEntity
  8
HIBINO-BASE
  6
Continuous
 62
     7
100
AcDbLine
 10
-164.8252000440871
 20
-529.4365718805811
 30
0.0
 11
-164.8252000440871
 21
250.5634281194188
 31
0.0
  0
LINE
  5
3B
330
240
100
AcDbEntity
  8
HIBINO-BASE
  6
Continuous
 62
     7
100
AcDbLine
 10
375.1747999559128
 20
250.5634281194188
 30
0.0
 11
375.1747999559128
 21
-529.4365718805811
 31
0.0
  0
LINE
  5
3C
330
240
100
AcDbEntity
  8
HIBINO-BASE
  6
Continuous
 62
     7
100
AcDbLine
 10
105.1747999559129
 20
-461.936571880581
 30
0.0
 11
375.1747999559128
 21
-461.936571880581
 31
0.0
  0
LINE
  5
3D
330
240
100
AcDbEntity
  8
HIBINO-BASE
  6
Continuous
 62
     7
100
AcDbLine
 10
105.1747999559129
 20
-529.4365718805811
 30
0.0
 11
105.1747999559129
 21
-461.936571880581
 31
0.0
  0
TEXT
  5
3E
330
240
100
AcDbEntity
  8
HIBINO-BASE
 62
     7
100
AcDbText
 10
107.8747999559129
 20
-469.4626518805811
 30
0.0
 40
4.886523437499999
  1
NOTE
 41
0.7
 11
107.8747999559129
 21
-464.5761284430811
 31
0.0
100
AcDbText
 73
     3
  0
LINE
  5
3F
330
240
100
AcDbEntity
  8
HIBINO-BASE
  6
Continuous
 62
     7
100
AcDbLine
 10
210.1747999559129
 20
-529.4365718805811
 30
0.0
 11
210.1747999559129
 21
-461.936571880581
 31
0.0
  0
TEXT
  5
40
330
240
100
AcDbEntity
  8
HIBINO-BASE
 62
     7
100
AcDbText
 10
212.8747999559128
 20
-469.4626518805811
 30
0.0
 40
4.886523437499999
  1
TITLE
 41
0.7
 11
212.8747999559128
 21
-464.5761284430811
 31
0.0
100
AcDbText
 73
     3
  0
LINE
  5
41
330
240
100
AcDbEntity
  8
HIBINO-BASE
  6
Continuous
 62
     7
100
AcDbLine
 10
105.1747999559129
 20
-499.436571880581
 30
0.0
 11
375.1747999559128
 21
-499.436571880581
 31
0.0
  0
TEXT
  5
42
330
240
100
AcDbEntity
  8
HIBINO-BASE
 62
     7
100
AcDbText
 10
250.3747999559128
 20
-506.7936918805812
 30
0.0
 40
4.886523437499999
  1
DRAWN
 41
0.7
 11
250.3747999559128
 21
-501.9071684430811
 31
0.0
100
AcDbText
 73
     3
  0
TEXT
  5
43
330
240
100
AcDbEntity
  8
HIBINO-BASE
 62
     7
100
AcDbText
 10
175.3747999559128
 20
-506.7936918805812
 30
0.0
 40
4.886523437499999
  1
DATE
 41
0.7
 11
175.3747999559128
 21
-501.9071684430811
 31
0.0
100
AcDbText
 73
     3
  0
TEXT
  5
44
330
240
100
AcDbEntity
  8
HIBINO-BASE
 62
     7
100
AcDbText
 10
145.3747999559128
 20
-506.7936918805812
 30
0.0
 40
4.886523437499999
  1
SCALE
 41
0.7
 11
145.3747999559128
 21
-501.9071684430811
 31
0.0
100
AcDbText
 73
     3
  0
TEXT
  5
45
330
240
100
AcDbEntity
  8
HIBINO-BASE
 62
     7
100
AcDbText
 10
212.8747999559128
 20
-506.7936918805812
 30
0.0
 40
4.886523437499999
  1
DESIGN
 41
0.7
 11
212.8747999559128
 21
-501.9071684430811
 31
0.0
100
AcDbText
 73
     3
  0
TEXT
  5
46
330
240
100
AcDbEntity
  8
HIBINO-BASE
 62
     7
100
AcDbText
 10
325.3747999559128
 20
-506.7936918805812
 30
0.0
 40
4.886523437499999
  1
DRAWING NO.
 41
0.7
 11
325.3747999559128
 21
-501.9071684430811
 31
0.0
100
AcDbText
 73
     3
  0
TEXT
  5
47
330
240
100
AcDbEntity
  8
HIBINO-BASE
 62
     7
100
AcDbText
 10
287.8747999559129
 20
-506.7936918805812
 30
0.0
 40
4.886523437499999
  1
CHECK
 41
0.7
 11
287.8747999559129
 21
-501.9071684430811
 31
0.0
100
AcDbText
 73
     3
  0
LINE
  5
48
330
240
100
AcDbEntity
  8
HIBINO-BASE
  6
Continuous
 62
     7
100
AcDbLine
 10
148.2997999559128
 20
-525.6865718805811
 30
0.0
 11
159.5497999559129
 21
-514.4365718805811
 31
0.0
  0
TEXT
  5
49
330
240
100
AcDbEntity
  8
HIBINO-BASE
 62
     7
100
AcDbText
 10
146.4247999559129
 20
-517.7634018805812
 30
0.0
 40
4.886523437499999
  1
1
 41
0.7
 11
146.4247999559129
 21
-512.8768784430811
 31
0.0
100
AcDbText
 73
     3
  0
LINE
  5
4A
330
240
100
AcDbEntity
  8
HIBINO-BASE
  6
Continuous
 62
     7
100
AcDbLine
 10
142.6747999559129
 20
-529.4365718805811
 30
0.0
 11
142.6747999559129
 21
-499.436571880581
 31
0.0
  0
LINE
  5
4B
330
240
100
AcDbEntity
  8
HIBINO-BASE
  6
Continuous
 62
     7
100
AcDbLine
 10
172.6747999559128
 20
-529.4365718805811
 30
0.0
 11
172.6747999559128
 21
-499.436571880581
 31
0.0
  0
LINE
  5
4C
330
240
100
AcDbEntity
  8
HIBINO-BASE
  6
Continuous
 62
     7
100
AcDbLine
 10
247.6747999559128
 20
-499.436571880581
 30
0.0
 11
247.6747999559128
 21
-529.4365718805811
 31
0.0
  0
LINE
  5
4D
330
240
100
AcDbEntity
  8
HIBINO-BASE
  6
Continuous
 62
     7
100
AcDbLine
 10
322.6747999559129
 20
-499.436571880581
 30
0.0
 11
322.6747999559129
 21
-529.4365718805811
 31
0.0
  0
LINE
  5
4E
330
240
100
AcDbEntity
  8
HIBINO-BASE
  6
Continuous
 62
     7
100
AcDbLine
 10
285.1747999559128
 20
-529.4365718805811
 30
0.0
 11
285.1747999559128
 21
-499.436571880581
 31
0.0
  0
TEXT
  5
4F
330
240
100
AcDbEntity
  8
HIBINO-BASE
 62
     7
100
AcDbText
 10
175.2444199559129
 20
-520.8456318805811
 30
0.0
 40
4.886523437499999
  1
'15.05.
 41
0.7
 11
175.2444199559129
 21
-515.959108443081
 31
0.0
100
AcDbText
 73
     3
  0
TEXT
  5
50
330
240
100
AcDbEntity
  8
HIBINO-BASE
 62
     7
100
AcDbText
 10
157.6747999559128
 20
-523.3884018805812
 30
0.0
 40
4.886523437499999
  1
5
 41
0.7
 11
157.6747999559128
 21
-518.5018784430812
 31
0.0
100
AcDbText
 73
     3
  0
TEXT
  5
51
330
240
100
AcDbEntity
  8
HIBINO-BASE
 62
     7
100
AcDbText
 10
252.1922299890168
 20
-520.8456318805811
 30
0.0
 40
4.886523437499999
  1
N.Sasaki
 41
0.7
 11
252.1922299890168
 21
-515.959108443081
 31
0.0
100
AcDbText
 73
     3
  0
TEXT
  5
52
330
240
100
AcDbEntity
  8
HIBINO-BASE
 62
     7
100
AcDbText
 10
116.8247999559129
 20
-523.5085718805811
 30
0.0
 40
9.773046874999998
  1
A4
 41
0.7
 11
116.8247999559129
 21
-513.7355250055811
 31
0.0
100
AcDbText
 73
     3
  0
TEXT
  5
53
330
240
100
AcDbEntity
  8
HIBINO-BASE
 62
     7
100
AcDbText
 10
108.0497999559129
 20
-507.2949368805811
 30
0.0
 40
4.886523437499999
  1
PAPER SIZE
 41
0.7
 11
108.0497999559129
 21
-502.4084134430811
 31
0.0
100
AcDbText
 73
     3
  0
TEXT
  5
54
330
240
100
AcDbEntity
  8
HIBINO-BASE
 62
     7
100
AcDbText
 10
-143.273200044087
 20
-548.6626052805811
 30
0.0
 40
10.8001325390625
  1
Hibino Corporation
 41
0.7
 11
-143.273200044087
 21
-537.8624727415187
 31
0.0
100
AcDbText
 73
     3
  0
TEXT
  5
55
330
240
100
AcDbEntity
  8
HIBINO-BASE
 62
     7
100
AcDbText
 10
255.3799699559128
 20
-548.6626052805811
 30
0.0
 40
10.8001325390625
  1
ヒビノ株式会社
 41
0.7
 11
255.3799699559128
 21
-537.8624727415187
 31
0.0
100
AcDbText
 73
     3
  0
LINE
  5
56
330
240
100
AcDbEntity
  8
SPEC
  6
Continuous
 62
     7
100
AcDbLine
 10
-142.3252000440871
 20
220.5634281194189
 30
0.0
 11
-142.3252000440871
 21
198.0634281194188
 31
0.0
  0
LINE
  5
57
330
240
100
AcDbEntity
  8
SPEC
  6
Continuous
 62
     7
100
AcDbLine
 10
306.25
 20
220.5634281194189
 30
0.0
 11
306.25
 21
198.0634281194188
 31
0.0
  0
LINE
  5
58
330
240
100
AcDbEntity
  8
SPEC
  6
Continuous
 62
     7
100
AcDbLine
 10
-44.82520004408721
 20
220.5634281194189
 30
0.0
 11
-44.82520004408721
 21
198.0634281194188
 31
0.0
  0
LINE
  5
59
330
240
100
AcDbEntity
  8
SPEC
  6
Continuous
 62
     7
100
AcDbLine
 10
-142.3252000440871
 20
220.5634281194189
 30
0.0
 11
306.25
 21
220.5634281194189
 31
0.0
  0
LINE
  5
5A
330
240
100
AcDbEntity
  8
SPEC
  6
Continuous
 62
     7
100
AcDbLine
 10
-142.3252000440871
 20
198.0634281194188
 30
0.0
 11
306.25
 21
198.0634281194188
 31
0.0
  0
TEXT
  5
5B
330
240
100
AcDbEntity
  8
SPEC
 62
     7
100
AcDbText
 10
-42.12520004408722
 20
200.4271814527522
 30
0.0
 40
5.700944010416665
  1
連結金具固定ねじ\U+00D712、アンテナホールキャップ\U+00D72
 41
0.7
 11
-42.12520004408722
 21
206.1281254631689
 31
0.0
100
AcDbText
 73
     3
  0
TEXT
  5
5C
330
240
100
AcDbEntity
  8
SPEC
 62
     7
100
AcDbText
 10
-139.6252000440872
 20
211.6771814527523
 30
0.0
 40
5.700944010416665
  1
セット内容
 41
0.7
 11
-139.6252000440872
 21
217.378125463169
 31
0.0
100
AcDbText
 73
     3
  0
TEXT
  5
5D
330
240
100
AcDbEntity
  8
SPEC
 62
     7
100
AcDbText
 10
-42.12520004408722
 20
211.6771814527523
 30
0.0
 40
5.700944010416665
  1
U字金具\U+00D72、L字金具\U+00D72、連結金具\U+00D72、U字/L字金具固定ねじ(ねじ\U+00D74、ワッシャー\U+00D74、ナット\U+00D74)、
 41
0.7
 11
-42.12520004408722
 21
217.3781254631689
 31
0.0
100
AcDbText
 73
     3
  0
TEXT
  5
5E
330
240
100
AcDbEntity
  8
DIMNSIONS
 62
     7
100
AcDbText
 10
45.1747999559129
 20
-492.628101880581
 30
0.0
 40
7.329785156249999
  1
(単位：mm)
 41
0.7
 11
45.1747999559129
 21
-485.298316724331
 31
0.0
100
AcDbText
 73
     3
  0
LINE
  5
5F
330
240
100
AcDbEntity
  8
DIMNSIONS
  6
Continuous
 62
     7
100
AcDbLine
 10
222.9
 20
-374.98
 30
0.0
 11
194.0
 21
-374.98
 31
0.0
  0
LINE
  5
60
330
240
100
AcDbEntity
  8
DIMNSIONS
  6
Continuous
 62
     7
100
AcDbLine
 10
222.9
 20
-354.78
 30
0.0
 11
194.0
 21
-354.78
 31
0.0
  0
LINE
  5
61
330
240
100
AcDbEntity
  8
DIMNSIONS
  6
Continuous
 62
     7
100
AcDbLine
 10
200.0
 20
-374.98
 30
0.0
 11
200.0
 21
-354.78
 31
0.0
  0
LINE
  5
62
330
240
100
AcDbEntity
  8
DIMNSIONS
  6
Continuous
 62
     7
100
AcDbLine
 10
200.0
 20
-374.98
 30
0.0
 11
197.9898806145493
 21
-367.4781323242188
 31
0.0
  0
LINE
  5
63
330
240
100
AcDbEntity
  8
DIMNSIONS
  6
Continuous
 62
     7
100
AcDbLine
 10
200.0
 20
-374.98
 30
0.0
 11
202.0101193854507
 21
-367.4781323242188
 31
0.0
  0
LINE
  5
64
330
240
100
AcDbEntity
  8
DIMNSIONS
  6
Continuous
 62
     7
100
AcDbLine
 10
200.0
 20
-354.78
 30
0.0
 11
202.0101193854507
 21
-362.2818676757812
 31
0.0
  0
LINE
  5
65
330
240
100
AcDbEntity
  8
DIMNSIONS
  6
Continuous
 62
     7
100
AcDbLine
 10
200.0
 20
-354.78
 30
0.0
 11
197.9898806145493
 21
-362.2818676757812
 31
0.0
  0
TEXT
  5
66
330
240
100
AcDbEntity
  8
DIMNSIONS
 62
     7
100
AcDbText
 10
196.0183333333333
 20
-375.4633333333333
 30
0.0
 40
8.144205729166666
  1
20.2
 50
90.0
 41
0.7
 11
187.8741276041667
 21
-375.4633333333333
 31
0.0
100
AcDbText
 73
     3
  0
LINE
  5
67
330
240
100
AcDbEntity
  8
DIMNSIONS
  6
Continuous
 62
     7
100
AcDbLine
 10
228.9000000000001
 20
-380.98
 30
0.0
 11
228.9000000000001
 21
-405.98
 31
0.0
  0
LINE
  5
68
330
240
100
AcDbEntity
  8
DIMNSIONS
  6
Continuous
 62
     7
100
AcDbLine
 10
271.0999999999999
 20
-380.98
 30
0.0
 11
271.0999999999999
 21
-405.98
 31
0.0
  0
LINE
  5
69
330
240
100
AcDbEntity
  8
DIMNSIONS
  6
Continuous
 62
     7
100
AcDbLine
 10
228.9000000000001
 20
-399.98
 30
0.0
 11
271.0999999999999
 21
-399.98
 31
0.0
  0
LINE
  5
6A
330
240
100
AcDbEntity
  8
DIMNSIONS
  6
Continuous
 62
     7
100
AcDbLine
 10
228.9000000000001
 20
-399.98
 30
0.0
 11
236.4018676757813
 21
-397.9698806145492
 31
0.0
  0
LINE
  5
6B
330
240
100
AcDbEntity
  8
DIMNSIONS
  6
Continuous
 62
     7
100
AcDbLine
 10
228.9000000000001
 20
-399.98
 30
0.0
 11
236.4018676757813
 21
-401.9901193854507
 31
0.0
  0
LINE
  5
6C
330
240
100
AcDbEntity
  8
DIMNSIONS
  6
Continuous
 62
     7
100
AcDbLine
 10
271.0999999999999
 20
-399.98
 30
0.0
 11
263.5981323242187
 21
-401.9901193854507
 31
0.0
  0
LINE
  5
6D
330
240
100
AcDbEntity
  8
DIMNSIONS
  6
Continuous
 62
     7
100
AcDbLine
 10
271.0999999999999
 20
-399.98
 30
0.0
 11
263.5981323242187
 21
-397.9698806145492
 31
0.0
  0
TEXT
  5
6E
330
240
100
AcDbEntity
  8
DIMNSIONS
 62
     7
100
AcDbText
 10
239.4166666666666
 20
-395.9983333333334
 30
0.0
 40
8.144205729166666
  1
42.2
 41
0.7
 11
239.4166666666666
 21
-387.8541276041667
 31
0.0
100
AcDbText
 73
     3
  0
LINE
  5
6F
330
240
100
AcDbEntity
  8
DIMNSIONS
  6
Continuous
 62
     7
100
AcDbLine
 10
302.5000000000001
 20
-380.98
 30
0.0
 11
302.5000000000001
 21
-405.98
 31
0.0
  0
LINE
  5
70
330
240
100
AcDbEntity
  8
DIMNSIONS
  6
Continuous
 62
     7
100
AcDbLine
 10
300.0
 20
-380.98
 30
0.0
 11
300.0
 21
-405.98
 31
0.0
  0
LINE
  5
71
330
240
100
AcDbEntity
  8
DIMNSIONS
  6
Continuous
 62
     7
100
AcDbLine
 10
300.0
 20
-399.98
 30
0.0
 11
302.5000000000001
 21
-399.98
 31
0.0
  0
LINE
  5
72
330
240
100
AcDbEntity
  8
DIMNSIONS
  6
Continuous
 62
     7
100
AcDbLine
 10
302.5000000000001
 20
-399.98
 30
0.0
 11
328.375
 21
-399.98
 31
0.0
  0
LINE
  5
73
330
240
100
AcDbEntity
  8
DIMNSIONS
  6
Continuous
 62
     7
100
AcDbLine
 10
302.5000000000001
 20
-399.98
 30
0.0
 11
310.0018676757813
 21
-397.9698806145492
 31
0.0
  0
LINE
  5
74
330
240
100
AcDbEntity
  8
DIMNSIONS
  6
Continuous
 62
     7
100
AcDbLine
 10
302.5000000000001
 20
-399.98
 30
0.0
 11
310.0018676757813
 21
-401.9901193854507
 31
0.0
  0
LINE
  5
75
330
240
100
AcDbEntity
  8
DIMNSIONS
  6
Continuous
 62
     7
100
AcDbLine
 10
300.0
 20
-399.98
 30
0.0
 11
285.0000000000001
 21
-399.98
 31
0.0
  0
LINE
  5
76
330
240
100
AcDbEntity
  8
DIMNSIONS
  6
Continuous
 62
     7
100
AcDbLine
 10
300.0
 20
-399.98
 30
0.0
 11
292.4981323242188
 21
-401.9901193854507
 31
0.0
  0
LINE
  5
77
330
240
100
AcDbEntity
  8
DIMNSIONS
  6
Continuous
 62
     7
100
AcDbLine
 10
300.0
 20
-399.98
 30
0.0
 11
292.4981323242188
 21
-397.9698806145492
 31
0.0
  0
TEXT
  5
78
330
240
100
AcDbEntity
  8
DIMNSIONS
 62
     7
100
AcDbText
 10
312.5
 20
-395.9983333333334
 30
0.0
 40
8.144205729166666
  1
2.5
 41
0.7
 11
312.5
 21
-387.8541276041667
 31
0.0
100
AcDbText
 73
     3
  0
LINE
  5
79
330
240
100
AcDbEntity
  8
DIMNSIONS
  6
Continuous
 62
     7
100
AcDbLine
 10
-100.0
 20
-378.17
 30
0.0
 11
-100.0
 21
-406.0
 31
0.0
  0
LINE
  5
7A
330
240
100
AcDbEntity
  8
DIMNSIONS
  6
Continuous
 62
     7
100
AcDbLine
 10
-58.30000000000024
 20
-381.0
 30
0.0
 11
-58.30000000000024
 21
-406.0
 31
0.0
  0
LINE
  5
7B
330
240
100
AcDbEntity
  8
DIMNSIONS
  6
Continuous
 62
     7
100
AcDbLine
 10
-100.0
 20
-400.0
 30
0.0
 11
-58.30000000000024
 21
-400.0
 31
0.0
  0
LINE
  5
7C
330
240
100
AcDbEntity
  8
DIMNSIONS
  6
Continuous
 62
     7
100
AcDbLine
 10
-100.0
 20
-400.0
 30
0.0
 11
-92.49813232421878
 21
-397.9898806145492
 31
0.0
  0
LINE
  5
7D
330
240
100
AcDbEntity
  8
DIMNSIONS
  6
Continuous
 62
     7
100
AcDbLine
 10
-100.0
 20
-400.0
 30
0.0
 11
-92.49813232421878
 21
-402.0101193854507
 31
0.0
  0
LINE
  5
7E
330
240
100
AcDbEntity
  8
DIMNSIONS
  6
Continuous
 62
     7
100
AcDbLine
 10
-58.30000000000024
 20
-400.0
 30
0.0
 11
-65.80186767578149
 21
-402.0101193854507
 31
0.0
  0
LINE
  5
7F
330
240
100
AcDbEntity
  8
DIMNSIONS
  6
Continuous
 62
     7
100
AcDbLine
 10
-58.30000000000024
 20
-400.0
 30
0.0
 11
-65.80186767578149
 21
-397.9898806145492
 31
0.0
  0
TEXT
  5
80
330
240
100
AcDbEntity
  8
DIMNSIONS
 62
     7
100
AcDbText
 10
-89.73333333333348
 20
-396.0183333333333
 30
0.0
 40
8.144205729166666
  1
41.7
 41
0.7
 11
-89.73333333333348
 21
-387.8741276041666
 31
0.0
100
AcDbText
 73
     3
  0
LINE
  5
81
330
240
100
AcDbEntity
  8
DIMNSIONS
  6
Continuous
 62
     7
100
AcDbLine
 10
-103.1700000000001
 20
-375.0
 30
0.0
 11
-131.0
 21
-375.0
 31
0.0
  0
LINE
  5
82
330
240
100
AcDbEntity
  8
DIMNSIONS
  6
Continuous
 62
     7
100
AcDbLine
 10
-103.1700000000001
 20
-331.2999999999999
 30
0.0
 11
-131.0
 21
-331.2999999999999
 31
0.0
  0
LINE
  5
83
330
240
100
AcDbEntity
  8
DIMNSIONS
  6
Continuous
 62
     7
100
AcDbLine
 10
-125.0
 20
-375.0
 30
0.0
 11
-125.0
 21
-331.2999999999999
 31
0.0
  0
LINE
  5
84
330
240
100
AcDbEntity
  8
DIMNSIONS
  6
Continuous
 62
     7
100
AcDbLine
 10
-125.0
 20
-375.0
 30
0.0
 11
-127.0101193854507
 21
-367.4981323242188
 31
0.0
  0
LINE
  5
85
330
240
100
AcDbEntity
  8
DIMNSIONS
  6
Continuous
 62
     7
100
AcDbLine
 10
-125.0
 20
-375.0
 30
0.0
 11
-122.9898806145492
 21
-367.4981323242188
 31
0.0
  0
LINE
  5
86
330
240
100
AcDbEntity
  8
DIMNSIONS
  6
Continuous
 62
     7
100
AcDbLine
 10
-125.0
 20
-331.2999999999999
 30
0.0
 11
-122.9898806145492
 21
-338.8018676757812
 31
0.0
  0
LINE
  5
87
330
240
100
AcDbEntity
  8
DIMNSIONS
  6
Continuous
 62
     7
100
AcDbLine
 10
-125.0
 20
-331.2999999999999
 30
0.0
 11
-127.0101193854507
 21
-338.8018676757812
 31
0.0
  0
TEXT
  5
88
330
240
100
AcDbEntity
  8
DIMNSIONS
 62
     7
100
AcDbText
 10
-128.9816666666667
 20
-363.7333333333333
 30
0.0
 40
8.144205729166666
  1
43.7
 50
90.0
 41
0.7
 11
-137.1258723958333
 21
-363.7333333333333
 31
0.0
100
AcDbText
 73
     3
  0
LINE
  5
89
330
240
100
AcDbEntity
  8
DIMNSIONS
  6
Continuous
 62
     7
100
AcDbLine
 10
-106.0
 20
-299.98
 30
0.0
 11
-131.0
 21
-299.98
 31
0.0
  0
LINE
  5
8A
330
240
100
AcDbEntity
  8
DIMNSIONS
  6
Continuous
 62
     7
100
AcDbLine
 10
-66.29999999999978
 20
-191.98
 30
0.0
 11
-131.0
 21
-191.98
 31
0.0
  0
LINE
  5
8B
330
240
100
AcDbEntity
  8
DIMNSIONS
  6
Continuous
 62
     7
100
AcDbLine
 10
-125.0
 20
-299.98
 30
0.0
 11
-125.0
 21
-191.98
 31
0.0
  0
LINE
  5
8C
330
240
100
AcDbEntity
  8
DIMNSIONS
  6
Continuous
 62
     7
100
AcDbLine
 10
-125.0
 20
-299.98
 30
0.0
 11
-127.0101193854507
 21
-292.4781323242188
 31
0.0
  0
LINE
  5
8D
330
240
100
AcDbEntity
  8
DIMNSIONS
  6
Continuous
 62
     7
100
AcDbLine
 10
-125.0
 20
-299.98
 30
0.0
 11
-122.9898806145492
 21
-292.4781323242188
 31
0.0
  0
LINE
  5
8E
330
240
100
AcDbEntity
  8
DIMNSIONS
  6
Continuous
 62
     7
100
AcDbLine
 10
-125.0
 20
-191.98
 30
0.0
 11
-122.9898806145492
 21
-199.4818676757813
 31
0.0
  0
LINE
  5
8F
330
240
100
AcDbEntity
  8
DIMNSIONS
  6
Continuous
 62
     7
100
AcDbLine
 10
-125.0
 20
-191.98
 30
0.0
 11
-127.0101193854507
 21
-199.4818676757813
 31
0.0
  0
TEXT
  5
90
330
240
100
AcDbEntity
  8
DIMNSIONS
 62
     7
100
AcDbText
 10
-128.9816666666666
 20
-253.9175
 30
0.0
 40
8.144205729166666
  1
108
 50
90.0
 41
0.7
 11
-137.1258723958333
 21
-253.9175
 31
0.0
100
AcDbText
 73
     3
  0
LINE
  5
91
330
240
100
AcDbEntity
  8
DIMNSIONS
  6
Continuous
 62
     7
100
AcDbLine
 10
-106.0
 20
-56.30000000000018
 30
0.0
 11
-131.0
 21
-56.30000000000018
 31
0.0
  0
LINE
  5
92
330
240
100
AcDbEntity
  8
DIMNSIONS
  6
Continuous
 62
     7
100
AcDbLine
 10
-106.0
 20
-100.0
 30
0.0
 11
-131.0
 21
-100.0
 31
0.0
  0
LINE
  5
93
330
240
100
AcDbEntity
  8
DIMNSIONS
  6
Continuous
 62
     7
100
AcDbLine
 10
-125.0
 20
-56.30000000000018
 30
0.0
 11
-125.0
 21
-100.0
 31
0.0
  0
LINE
  5
94
330
240
100
AcDbEntity
  8
DIMNSIONS
  6
Continuous
 62
     7
100
AcDbLine
 10
-125.0
 20
-56.30000000000018
 30
0.0
 11
-122.9898806145492
 21
-63.80186767578144
 31
0.0
  0
LINE
  5
95
330
240
100
AcDbEntity
  8
DIMNSIONS
  6
Continuous
 62
     7
100
AcDbLine
 10
-125.0
 20
-56.30000000000018
 30
0.0
 11
-127.0101193854507
 21
-63.80186767578144
 31
0.0
  0
LINE
  5
96
330
240
100
AcDbEntity
  8
DIMNSIONS
  6
Continuous
 62
     7
100
AcDbLine
 10
-125.0
 20
-100.0
 30
0.0
 11
-127.0101193854507
 21
-92.49813232421873
 31
0.0
  0
LINE
  5
97
330
240
100
AcDbEntity
  8
DIMNSIONS
  6
Continuous
 62
     7
100
AcDbLine
 10
-125.0
 20
-100.0
 30
0.0
 11
-122.9898806145492
 21
-92.49813232421873
 31
0.0
  0
TEXT
  5
98
330
240
100
AcDbEntity
  8
DIMNSIONS
 62
     7
100
AcDbText
 10
-127.9816666666667
 20
-88.73333333333341
 30
0.0
 40
8.144205729166666
  1
43.7
 50
90.0
 41
0.7
 11
-136.1258723958333
 21
-88.73333333333341
 31
0.0
100
AcDbText
 73
     3
  0
LINE
  5
99
330
240
100
AcDbEntity
  8
DIMNSIONS
  6
Continuous
 62
     7
100
AcDbLine
 10
-102.0
 20
-0.0000000000002274
 30
0.0
 11
-131.0
 21
-0.0000000000002274
 31
0.0
  0
LINE
  5
9A
330
240
100
AcDbEntity
  8
DIMNSIONS
  6
Continuous
 62
     7
100
AcDbLine
 10
-106.0
 20
108.0000000000001
 30
0.0
 11
-131.0
 21
108.0000000000001
 31
0.0
  0
LINE
  5
9B
330
240
100
AcDbEntity
  8
DIMNSIONS
  6
Continuous
 62
     7
100
AcDbLine
 10
-125.0
 20
-0.0000000000002274
 30
0.0
 11
-125.0
 21
108.0000000000001
 31
0.0
  0
LINE
  5
9C
330
240
100
AcDbEntity
  8
DIMNSIONS
  6
Continuous
 62
     7
100
AcDbLine
 10
-125.0
 20
-0.0000000000002274
 30
0.0
 11
-127.0101193854507
 21
7.501867675781027
 31
0.0
  0
LINE
  5
9D
330
240
100
AcDbEntity
  8
DIMNSIONS
  6
Continuous
 62
     7
100
AcDbLine
 10
-125.0
 20
-0.0000000000002274
 30
0.0
 11
-122.9898806145492
 21
7.501867675781027
 31
0.0
  0
LINE
  5
9E
330
240
100
AcDbEntity
  8
DIMNSIONS
  6
Continuous
 62
     7
100
AcDbLine
 10
-125.0
 20
108.0000000000001
 30
0.0
 11
-122.9898806145492
 21
100.4981323242188
 31
0.0
  0
LINE
  5
9F
330
240
100
AcDbEntity
  8
DIMNSIONS
  6
Continuous
 62
     7
100
AcDbLine
 10
-125.0
 20
108.0000000000001
 30
0.0
 11
-127.0101193854507
 21
100.4981323242188
 31
0.0
  0
TEXT
  5
A0
330
240
100
AcDbEntity
  8
DIMNSIONS
 62
     7
100
AcDbText
 10
-127.9816666666666
 20
46.06249999999993
 30
0.0
 40
8.144205729166666
  1
108
 50
90.0
 41
0.7
 11
-136.1258723958333
 21
46.06249999999993
 31
0.0
100
AcDbText
 73
     3
  0
LINE
  5
A1
330
240
100
AcDbEntity
  8
DIMNSIONS
  6
Continuous
 62
     7
100
AcDbLine
 10
33.5
 20
-106.0
 30
0.0
 11
33.5
 21
-131.0000000000002
 31
0.0
  0
LINE
  5
A2
330
240
100
AcDbEntity
  8
DIMNSIONS
  6
Continuous
 62
     7
100
AcDbLine
 10
-100.0
 20
-106.0
 30
0.0
 11
-100.0
 21
-131.0000000000002
 31
0.0
  0
LINE
  5
A3
330
240
100
AcDbEntity
  8
DIMNSIONS
  6
Continuous
 62
     7
100
AcDbLine
 10
33.5
 20
-125.0000000000002
 30
0.0
 11
-100.0
 21
-125.0000000000002
 31
0.0
  0
LINE
  5
A4
330
240
100
AcDbEntity
  8
DIMNSIONS
  6
Continuous
 62
     7
100
AcDbLine
 10
33.5
 20
-125.0000000000002
 30
0.0
 11
25.99813232421875
 21
-127.0101193854509
 31
0.0
  0
LINE
  5
A5
330
240
100
AcDbEntity
  8
DIMNSIONS
  6
Continuous
 62
     7
100
AcDbLine
 10
33.5
 20
-125.0000000000002
 30
0.0
 11
25.99813232421875
 21
-122.9898806145494
 31
0.0
  0
LINE
  5
A6
330
240
100
AcDbEntity
  8
DIMNSIONS
  6
Continuous
 62
     7
100
AcDbLine
 10
-100.0
 20
-125.0000000000002
 30
0.0
 11
-92.49813232421873
 21
-122.9898806145494
 31
0.0
  0
LINE
  5
A7
330
240
100
AcDbEntity
  8
DIMNSIONS
  6
Continuous
 62
     7
100
AcDbLine
 10
-100.0
 20
-125.0000000000002
 30
0.0
 11
-92.49813232421873
 21
-127.0101193854509
 31
0.0
  0
TEXT
  5
A8
330
240
100
AcDbEntity
  8
DIMNSIONS
 62
     7
100
AcDbText
 10
-41.1875
 20
-122.0183333333336
 30
0.0
 40
8.144205729166666
  1
134
 41
0.7
 11
-41.1875
 21
-113.8741276041669
 31
0.0
100
AcDbText
 73
     3
  0
LINE
  5
A9
330
240
100
AcDbEntity
  8
DIMNSIONS
  6
Continuous
 62
     7
100
AcDbLine
 10
95.00000000000012
 20
-62.40000000000021
 30
0.0
 11
95.00000000000012
 21
-31.5
 31
0.0
  0
LINE
  5
AA
330
240
100
AcDbEntity
  8
DIMNSIONS
  6
Continuous
 62
     7
100
AcDbLine
 10
113.4999999999996
 20
-62.40000000000021
 30
0.0
 11
113.4999999999996
 21
-31.5
 31
0.0
  0
LINE
  5
AB
330
240
100
AcDbEntity
  8
DIMNSIONS
  6
Continuous
 62
     7
100
AcDbLine
 10
95.00000000000012
 20
-37.5
 30
0.0
 11
113.4999999999996
 21
-37.5
 31
0.0
  0
LINE
  5
AC
330
240
100
AcDbEntity
  8
DIMNSIONS
  6
Continuous
 62
     7
100
AcDbLine
 10
95.00000000000012
 20
-37.5
 30
0.0
 11
102.5018676757813
 21
-35.48988061454926
 31
0.0
  0
LINE
  5
AD
330
240
100
AcDbEntity
  8
DIMNSIONS
  6
Continuous
 62
     7
100
AcDbLine
 10
95.00000000000012
 20
-37.5
 30
0.0
 11
102.5018676757813
 21
-39.51011938545074
 31
0.0
  0
LINE
  5
AE
330
240
100
AcDbEntity
  8
DIMNSIONS
  6
Continuous
 62
     7
100
AcDbLine
 10
113.4999999999996
 20
-37.5
 30
0.0
 11
105.9981323242184
 21
-39.51011938545074
 31
0.0
  0
LINE
  5
AF
330
240
100
AcDbEntity
  8
DIMNSIONS
  6
Continuous
 62
     7
100
AcDbLine
 10
113.4999999999996
 20
-37.5
 30
0.0
 11
105.9981323242184
 21
-35.48988061454926
 31
0.0
  0
TEXT
  5
B0
330
240
100
AcDbEntity
  8
DIMNSIONS
 62
     7
100
AcDbText
 10
93.66666666666658
 20
-31.01833333333334
 30
0.0
 40
8.144205729166666
  1
18.5
 41
0.7
 11
93.66666666666658
 21
-22.87412760416668
 31
0.0
100
AcDbText
 73
     3
  0
LINE
  5
B1
330
240
100
AcDbEntity
  8
DIMNSIONS
  6
Continuous
 62
     7
100
AcDbLine
 10
75.0
 20
-50.30000000000018
 30
0.0
 11
75.0
 21
-31.5
 31
0.0
  0
LINE
  5
B2
330
240
100
AcDbEntity
  8
DIMNSIONS
  6
Continuous
 62
     7
100
AcDbLine
 10
95.00000000000012
 20
-62.40000000000021
 30
0.0
 11
95.00000000000012
 21
-31.5
 31
0.0
  0
LINE
  5
B3
330
240
100
AcDbEntity
  8
DIMNSIONS
  6
Continuous
 62
     7
100
AcDbLine
 10
75.0
 20
-37.5
 30
0.0
 11
47.58333333333334
 21
-37.5
 31
0.0
  0
LINE
  5
B4
330
240
100
AcDbEntity
  8
DIMNSIONS
  6
Continuous
 62
     7
100
AcDbLine
 10
75.0
 20
-37.5
 30
0.0
 11
95.00000000000012
 21
-37.5
 31
0.0
  0
LINE
  5
B5
330
240
100
AcDbEntity
  8
DIMNSIONS
  6
Continuous
 62
     7
100
AcDbLine
 10
75.0
 20
-37.5
 30
0.0
 11
82.50186767578126
 21
-35.48988061454926
 31
0.0
  0
LINE
  5
B6
330
240
100
AcDbEntity
  8
DIMNSIONS
  6
Continuous
 62
     7
100
AcDbLine
 10
75.0
 20
-37.5
 30
0.0
 11
82.50186767578126
 21
-39.51011938545074
 31
0.0
  0
LINE
  5
B7
330
240
100
AcDbEntity
  8
DIMNSIONS
  6
Continuous
 62
     7
100
AcDbLine
 10
95.00000000000012
 20
-37.5
 30
0.0
 11
87.49813232421884
 21
-39.51011938545074
 31
0.0
  0
LINE
  5
B8
330
240
100
AcDbEntity
  8
DIMNSIONS
  6
Continuous
 62
     7
100
AcDbLine
 10
95.00000000000012
 20
-37.5
 30
0.0
 11
87.49813232421884
 21
-35.48988061454926
 31
0.0
  0
TEXT
  5
B9
330
240
100
AcDbEntity
  8
DIMNSIONS
 62
     7
100
AcDbText
 10
47.58333333333334
 20
-34.51833333333334
 30
0.0
 40
8.144205729166666
  1
20.0
 41
0.7
 11
47.58333333333334
 21
-26.37412760416668
 31
0.0
100
AcDbText
 73
     3
  0
LINE
  5
BA
330
240
100
AcDbEntity
  8
DIMNSIONS
  6
Continuous
 62
     7
100
AcDbLine
 10
-25.0
 20
-325.2999999999999
 30
0.0
 11
-25.0
 21
-306.5
 31
0.0
  0
LINE
  5
BB
330
240
100
AcDbEntity
  8
DIMNSIONS
  6
Continuous
 62
     7
100
AcDbLine
 10
-4.999999999999772
 20
-337.3999999999998
 30
0.0
 11
-4.999999999999772
 21
-306.5
 31
0.0
  0
LINE
  5
BC
330
240
100
AcDbEntity
  8
DIMNSIONS
  6
Continuous
 62
     7
100
AcDbLine
 10
-25.0
 20
-312.5
 30
0.0
 11
-52.41666666666666
 21
-312.5
 31
0.0
  0
LINE
  5
BD
330
240
100
AcDbEntity
  8
DIMNSIONS
  6
Continuous
 62
     7
100
AcDbLine
 10
-25.0
 20
-312.5
 30
0.0
 11
-4.999999999999772
 21
-312.5
 31
0.0
  0
LINE
  5
BE
330
240
100
AcDbEntity
  8
DIMNSIONS
  6
Continuous
 62
     7
100
AcDbLine
 10
-25.0
 20
-312.5
 30
0.0
 11
-17.49813232421874
 21
-310.4898806145492
 31
0.0
  0
LINE
  5
BF
330
240
100
AcDbEntity
  8
DIMNSIONS
  6
Continuous
 62
     7
100
AcDbLine
 10
-25.0
 20
-312.5
 30
0.0
 11
-17.49813232421874
 21
-314.5101193854508
 31
0.0
  0
LINE
  5
C0
330
240
100
AcDbEntity
  8
DIMNSIONS
  6
Continuous
 62
     7
100
AcDbLine
 10
-4.999999999999772
 20
-312.5
 30
0.0
 11
-12.50186767578103
 21
-314.5101193854508
 31
0.0
  0
LINE
  5
C1
330
240
100
AcDbEntity
  8
DIMNSIONS
  6
Continuous
 62
     7
100
AcDbLine
 10
-4.999999999999772
 20
-312.5
 30
0.0
 11
-12.50186767578103
 21
-310.4898806145492
 31
0.0
  0
TEXT
  5
C2
330
240
100
AcDbEntity
  8
DIMNSIONS
 62
     7
100
AcDbText
 10
-52.41666666666668
 20
-309.5183333333334
 30
0.0
 40
8.144205729166666
  1
20.0
 41
0.7
 11
-52.41666666666668
 21
-301.3741276041667
 31
0.0
100
AcDbText
 73
     3
  0
LINE
  5
C3
330
240
100
AcDbEntity
  8
DIMNSIONS
  6
Continuous
 62
     7
100
AcDbLine
 10
-4.999999999999772
 20
-337.3999999999998
 30
0.0
 11
-4.999999999999772
 21
-306.5
 31
0.0
  0
LINE
  5
C4
330
240
100
AcDbEntity
  8
DIMNSIONS
  6
Continuous
 62
     7
100
AcDbLine
 10
13.49999999999977
 20
-337.3999999999998
 30
0.0
 11
13.49999999999977
 21
-306.5
 31
0.0
  0
LINE
  5
C5
330
240
100
AcDbEntity
  8
DIMNSIONS
  6
Continuous
 62
     7
100
AcDbLine
 10
-4.999999999999772
 20
-312.5
 30
0.0
 11
13.49999999999977
 21
-312.5
 31
0.0
  0
LINE
  5
C6
330
240
100
AcDbEntity
  8
DIMNSIONS
  6
Continuous
 62
     7
100
AcDbLine
 10
-4.999999999999772
 20
-312.5
 30
0.0
 11
2.501867675781483
 21
-310.4898806145492
 31
0.0
  0
LINE
  5
C7
330
240
100
AcDbEntity
  8
DIMNSIONS
  6
Continuous
 62
     7
100
AcDbLine
 10
-4.999999999999772
 20
-312.5
 30
0.0
 11
2.501867675781483
 21
-314.5101193854508
 31
0.0
  0
LINE
  5
C8
330
240
100
AcDbEntity
  8
DIMNSIONS
  6
Continuous
 62
     7
100
AcDbLine
 10
13.49999999999977
 20
-312.5
 30
0.0
 11
5.998132324218516
 21
-314.5101193854508
 31
0.0
  0
LINE
  5
C9
330
240
100
AcDbEntity
  8
DIMNSIONS
  6
Continuous
 62
     7
100
AcDbLine
 10
13.49999999999977
 20
-312.5
 30
0.0
 11
5.998132324218516
 21
-310.4898806145492
 31
0.0
  0
TEXT
  5
CA
330
240
100
AcDbEntity
  8
DIMNSIONS
 62
     7
100
AcDbText
 10
-6.333333333333329
 20
-306.0183333333334
 30
0.0
 40
8.144205729166666
  1
18.5
 41
0.7
 11
-6.333333333333328
 21
-297.8741276041667
 31
0.0
100
AcDbText
 73
     3
  0
LINE
  5
CB
330
240
100
AcDbEntity
  8
DIMNSIONS
  6
Continuous
 62
     7
100
AcDbLine
 10
84.50000000000001
 20
-343.3999999999998
 30
0.0
 11
118.5
 21
-343.3999999999998
 31
0.0
  0
LINE
  5
CC
330
240
100
AcDbEntity
  8
DIMNSIONS
  6
Continuous
 62
     7
100
AcDbLine
 10
84.50000000000001
 20
-362.8999999999999
 30
0.0
 11
118.5
 21
-362.8999999999999
 31
0.0
  0
LINE
  5
CD
330
240
100
AcDbEntity
  8
DIMNSIONS
  6
Continuous
 62
     7
100
AcDbLine
 10
112.5
 20
-362.8999999999999
 30
0.0
 11
112.5
 21
-396.1666666666666
 31
0.0
  0
LINE
  5
CE
330
240
100
AcDbEntity
  8
DIMNSIONS
  6
Continuous
 62
     7
100
AcDbLine
 10
112.5
 20
-343.3999999999998
 30
0.0
 11
112.5
 21
-362.8999999999999
 31
0.0
  0
LINE
  5
CF
330
240
100
AcDbEntity
  8
DIMNSIONS
  6
Continuous
 62
     7
100
AcDbLine
 10
112.5
 20
-343.3999999999998
 30
0.0
 11
114.5101193854507
 21
-350.9018676757811
 31
0.0
  0
LINE
  5
D0
330
240
100
AcDbEntity
  8
DIMNSIONS
  6
Continuous
 62
     7
100
AcDbLine
 10
112.5
 20
-343.3999999999998
 30
0.0
 11
110.4898806145492
 21
-350.9018676757811
 31
0.0
  0
LINE
  5
D1
330
240
100
AcDbEntity
  8
DIMNSIONS
  6
Continuous
 62
     7
100
AcDbLine
 10
112.5
 20
-362.8999999999999
 30
0.0
 11
110.4898806145492
 21
-355.3981323242186
 31
0.0
  0
LINE
  5
D2
330
240
100
AcDbEntity
  8
DIMNSIONS
  6
Continuous
 62
     7
100
AcDbLine
 10
112.5
 20
-362.8999999999999
 30
0.0
 11
114.5101193854507
 21
-355.3981323242186
 31
0.0
  0
TEXT
  5
D3
330
240
100
AcDbEntity
  8
DIMNSIONS
 62
     7
100
AcDbText
 10
109.5183333333333
 20
-396.1666666666666
 30
0.0
 40
8.144205729166666
  1
19.5
 50
90.0
 41
0.7
 11
101.3741276041666
 21
-396.1666666666666
 31
0.0
100
AcDbText
 73
     3
  0
LINE
  5
D4
330
240
100
AcDbEntity
  8
DIMNSIONS
  6
Continuous
 62
     7
100
AcDbLine
 10
13.49999999999977
 20
-337.3999999999998
 30
0.0
 11
13.49999999999977
 21
-306.5
 31
0.0
  0
LINE
  5
D5
330
240
100
AcDbEntity
  8
DIMNSIONS
  6
Continuous
 62
     7
100
AcDbLine
 10
60.0
 20
-337.3999999999998
 30
0.0
 11
60.0
 21
-306.5
 31
0.0
  0
LINE
  5
D6
330
240
100
AcDbEntity
  8
DIMNSIONS
  6
Continuous
 62
     7
100
AcDbLine
 10
13.49999999999977
 20
-312.5
 30
0.0
 11
60.0
 21
-312.5
 31
0.0
  0
LINE
  5
D7
330
240
100
AcDbEntity
  8
DIMNSIONS
  6
Continuous
 62
     7
100
AcDbLine
 10
13.49999999999977
 20
-312.5
 30
0.0
 11
21.00186767578103
 21
-310.4898806145492
 31
0.0
  0
LINE
  5
D8
330
240
100
AcDbEntity
  8
DIMNSIONS
  6
Continuous
 62
     7
100
AcDbLine
 10
13.49999999999977
 20
-312.5
 30
0.0
 11
21.00186767578103
 21
-314.5101193854508
 31
0.0
  0
LINE
  5
D9
330
240
100
AcDbEntity
  8
DIMNSIONS
  6
Continuous
 62
     7
100
AcDbLine
 10
60.0
 20
-312.5
 30
0.0
 11
52.49813232421875
 21
-314.5101193854508
 31
0.0
  0
LINE
  5
DA
330
240
100
AcDbEntity
  8
DIMNSIONS
  6
Continuous
 62
     7
100
AcDbLine
 10
60.0
 20
-312.5
 30
0.0
 11
52.49813232421875
 21
-310.4898806145492
 31
0.0
  0
TEXT
  5
DB
330
240
100
AcDbEntity
  8
DIMNSIONS
 62
     7
100
AcDbText
 10
26.16666666666656
 20
-309.5183333333334
 30
0.0
 40
8.144205729166666
  1
46.5
 41
0.7
 11
26.16666666666656
 21
-301.3741276041667
 31
0.0
100
AcDbText
 73
     3
  0
LINE
  5
DC
330
240
100
AcDbEntity
  8
DIMNSIONS
  6
Continuous
 62
     7
100
AcDbLine
 10
60.0
 20
-337.3999999999998
 30
0.0
 11
60.0
 21
-306.5
 31
0.0
  0
LINE
  5
DD
330
240
100
AcDbEntity
  8
DIMNSIONS
  6
Continuous
 62
     7
100
AcDbLine
 10
78.5
 20
-337.3999999999998
 30
0.0
 11
78.5
 21
-306.5
 31
0.0
  0
LINE
  5
DE
330
240
100
AcDbEntity
  8
DIMNSIONS
  6
Continuous
 62
     7
100
AcDbLine
 10
60.0
 20
-312.5
 30
0.0
 11
78.5
 21
-312.5
 31
0.0
  0
LINE
  5
DF
330
240
100
AcDbEntity
  8
DIMNSIONS
  6
Continuous
 62
     7
100
AcDbLine
 10
60.0
 20
-312.5
 30
0.0
 11
67.50186767578125
 21
-310.4898806145492
 31
0.0
  0
LINE
  5
E0
330
240
100
AcDbEntity
  8
DIMNSIONS
  6
Continuous
 62
     7
100
AcDbLine
 10
60.0
 20
-312.5
 30
0.0
 11
67.50186767578125
 21
-314.5101193854508
 31
0.0
  0
LINE
  5
E1
330
240
100
AcDbEntity
  8
DIMNSIONS
  6
Continuous
 62
     7
100
AcDbLine
 10
78.5
 20
-312.5
 30
0.0
 11
70.99813232421873
 21
-314.5101193854508
 31
0.0
  0
LINE
  5
E2
330
240
100
AcDbEntity
  8
DIMNSIONS
  6
Continuous
 62
     7
100
AcDbLine
 10
78.5
 20
-312.5
 30
0.0
 11
70.99813232421873
 21
-310.4898806145492
 31
0.0
  0
TEXT
  5
E3
330
240
100
AcDbEntity
  8
DIMNSIONS
 62
     7
100
AcDbText
 10
58.66666666666667
 20
-306.0183333333334
 30
0.0
 40
8.144205729166666
  1
18.5
 41
0.7
 11
58.66666666666667
 21
-297.8741276041667
 31
0.0
100
AcDbText
 73
     3
  0
LINE
  5
E4
330
240
100
AcDbEntity
  8
DIMNSIONS
  6
Continuous
 62
     7
100
AcDbLine
 10
113.4999999999996
 20
-62.40000000000021
 30
0.0
 11
113.4999999999996
 21
-31.5
 31
0.0
  0
LINE
  5
E5
330
240
100
AcDbEntity
  8
DIMNSIONS
  6
Continuous
 62
     7
100
AcDbLine
 10
159.9999999999998
 20
-62.40000000000021
 30
0.0
 11
159.9999999999998
 21
-31.5
 31
0.0
  0
LINE
  5
E6
330
240
100
AcDbEntity
  8
DIMNSIONS
  6
Continuous
 62
     7
100
AcDbLine
 10
113.4999999999996
 20
-37.5
 30
0.0
 11
159.9999999999998
 21
-37.5
 31
0.0
  0
LINE
  5
E7
330
240
100
AcDbEntity
  8
DIMNSIONS
  6
Continuous
 62
     7
100
AcDbLine
 10
113.4999999999996
 20
-37.5
 30
0.0
 11
121.0018676757809
 21
-35.48988061454926
 31
0.0
  0
LINE
  5
E8
330
240
100
AcDbEntity
  8
DIMNSIONS
  6
Continuous
 62
     7
100
AcDbLine
 10
113.4999999999996
 20
-37.5
 30
0.0
 11
121.0018676757809
 21
-39.51011938545074
 31
0.0
  0
LINE
  5
E9
330
240
100
AcDbEntity
  8
DIMNSIONS
  6
Continuous
 62
     7
100
AcDbLine
 10
159.9999999999998
 20
-37.5
 30
0.0
 11
152.4981323242186
 21
-39.51011938545074
 31
0.0
  0
LINE
  5
EA
330
240
100
AcDbEntity
  8
DIMNSIONS
  6
Continuous
 62
     7
100
AcDbLine
 10
159.9999999999998
 20
-37.5
 30
0.0
 11
152.4981323242186
 21
-35.48988061454926
 31
0.0
  0
TEXT
  5
EB
330
240
100
AcDbEntity
  8
DIMNSIONS
 62
     7
100
AcDbText
 10
126.1666666666664
 20
-34.51833333333334
 30
0.0
 40
8.144205729166666
  1
46.5
 41
0.7
 11
126.1666666666664
 21
-26.37412760416668
 31
0.0
100
AcDbText
 73
     3
  0
LINE
  5
EC
330
240
100
AcDbEntity
  8
DIMNSIONS
  6
Continuous
 62
     7
100
AcDbLine
 10
159.9999999999998
 20
-62.40000000000021
 30
0.0
 11
159.9999999999998
 21
-31.5
 31
0.0
  0
LINE
  5
ED
330
240
100
AcDbEntity
  8
DIMNSIONS
  6
Continuous
 62
     7
100
AcDbLine
 10
178.4999999999999
 20
-62.40000000000021
 30
0.0
 11
178.4999999999999
 21
-31.5
 31
0.0
  0
LINE
  5
EE
330
240
100
AcDbEntity
  8
DIMNSIONS
  6
Continuous
 62
     7
100
AcDbLine
 10
159.9999999999998
 20
-37.5
 30
0.0
 11
178.4999999999999
 21
-37.5
 31
0.0
  0
LINE
  5
EF
330
240
100
AcDbEntity
  8
DIMNSIONS
  6
Continuous
 62
     7
100
AcDbLine
 10
159.9999999999998
 20
-37.5
 30
0.0
 11
167.5018676757811
 21
-35.48988061454926
 31
0.0
  0
LINE
  5
F0
330
240
100
AcDbEntity
  8
DIMNSIONS
  6
Continuous
 62
     7
100
AcDbLine
 10
159.9999999999998
 20
-37.5
 30
0.0
 11
167.5018676757811
 21
-39.51011938545074
 31
0.0
  0
LINE
  5
F1
330
240
100
AcDbEntity
  8
DIMNSIONS
  6
Continuous
 62
     7
100
AcDbLine
 10
178.4999999999999
 20
-37.5
 30
0.0
 11
170.9981323242186
 21
-39.51011938545074
 31
0.0
  0
LINE
  5
F2
330
240
100
AcDbEntity
  8
DIMNSIONS
  6
Continuous
 62
     7
100
AcDbLine
 10
178.4999999999999
 20
-37.5
 30
0.0
 11
170.9981323242186
 21
-35.48988061454926
 31
0.0
  0
TEXT
  5
F3
330
240
100
AcDbEntity
  8
DIMNSIONS
 62
     7
100
AcDbText
 10
158.6666666666666
 20
-31.01833333333334
 30
0.0
 40
8.144205729166666
  1
18.5
 41
0.7
 11
158.6666666666666
 21
-22.87412760416668
 31
0.0
100
AcDbText
 73
     3
  0
LINE
  5
F4
330
240
100
AcDbEntity
  8
DIMNSIONS
  6
Continuous
 62
     7
100
AcDbLine
 10
184.4999999999999
 20
-68.40000000000021
 30
0.0
 11
218.5
 21
-68.40000000000021
 31
0.0
  0
LINE
  5
F5
330
240
100
AcDbEntity
  8
DIMNSIONS
  6
Continuous
 62
     7
100
AcDbLine
 10
184.4999999999999
 20
-87.90000000000018
 30
0.0
 11
218.5
 21
-87.90000000000018
 31
0.0
  0
LINE
  5
F6
330
240
100
AcDbEntity
  8
DIMNSIONS
  6
Continuous
 62
     7
100
AcDbLine
 10
212.5
 20
-87.90000000000018
 30
0.0
 11
212.5
 21
-121.1666666666666
 31
0.0
  0
LINE
  5
F7
330
240
100
AcDbEntity
  8
DIMNSIONS
  6
Continuous
 62
     7
100
AcDbLine
 10
212.5
 20
-68.40000000000021
 30
0.0
 11
212.5
 21
-87.90000000000018
 31
0.0
  0
LINE
  5
F8
330
240
100
AcDbEntity
  8
DIMNSIONS
  6
Continuous
 62
     7
100
AcDbLine
 10
212.5
 20
-68.40000000000021
 30
0.0
 11
214.5101193854507
 21
-75.90186767578145
 31
0.0
  0
LINE
  5
F9
330
240
100
AcDbEntity
  8
DIMNSIONS
  6
Continuous
 62
     7
100
AcDbLine
 10
212.5
 20
-68.40000000000021
 30
0.0
 11
210.4898806145493
 21
-75.90186767578145
 31
0.0
  0
LINE
  5
FA
330
240
100
AcDbEntity
  8
DIMNSIONS
  6
Continuous
 62
     7
100
AcDbLine
 10
212.5
 20
-87.90000000000018
 30
0.0
 11
210.4898806145493
 21
-80.39813232421895
 31
0.0
  0
LINE
  5
FB
330
240
100
AcDbEntity
  8
DIMNSIONS
  6
Continuous
 62
     7
100
AcDbLine
 10
212.5
 20
-87.90000000000018
 30
0.0
 11
214.5101193854507
 21
-80.39813232421895
 31
0.0
  0
TEXT
  5
FC
330
240
100
AcDbEntity
  8
DIMNSIONS
 62
     7
100
AcDbText
 10
209.5183333333333
 20
-121.1666666666666
 30
0.0
 40
8.144205729166666
  1
19.5
 50
90.0
 41
0.7
 11
201.3741276041667
 21
-121.1666666666666
 31
0.0
100
AcDbText
 73
     3
  0
LINE
  5
FD
330
240
100
AcDbEntity
  8
DIMNSIONS
  6
Continuous
 62
     7
100
AcDbLine
 10
237.0
 20
-358.88
 30
0.0
 11
237.0
 21
-319.0
 31
0.0
  0
LINE
  5
FE
330
240
100
AcDbEntity
  8
DIMNSIONS
  6
Continuous
 62
     7
100
AcDbLine
 10
263.0
 20
-358.88
 30
0.0
 11
263.0
 21
-319.0
 31
0.0
  0
LINE
  5
FF
330
240
100
AcDbEntity
  8
DIMNSIONS
  6
Continuous
 62
     7
100
AcDbLine
 10
237.0
 20
-325.0
 30
0.0
 11
203.9333333333332
 21
-325.0
 31
0.0
  0
LINE
  5
100
330
240
100
AcDbEntity
  8
DIMNSIONS
  6
Continuous
 62
     7
100
AcDbLine
 10
237.0
 20
-325.0
 30
0.0
 11
263.0
 21
-325.0
 31
0.0
  0
LINE
  5
101
330
240
100
AcDbEntity
  8
DIMNSIONS
  6
Continuous
 62
     7
100
AcDbLine
 10
237.0
 20
-325.0
 30
0.0
 11
244.5018676757813
 21
-322.9898806145492
 31
0.0
  0
LINE
  5
102
330
240
100
AcDbEntity
  8
DIMNSIONS
  6
Continuous
 62
     7
100
AcDbLine
 10
237.0
 20
-325.0
 30
0.0
 11
244.5018676757813
 21
-327.0101193854508
 31
0.0
  0
LINE
  5
103
330
240
100
AcDbEntity
  8
DIMNSIONS
  6
Continuous
 62
     7
100
AcDbLine
 10
263.0
 20
-325.0
 30
0.0
 11
255.4981323242187
 21
-327.0101193854508
 31
0.0
  0
LINE
  5
104
330
240
100
AcDbEntity
  8
DIMNSIONS
  6
Continuous
 62
     7
100
AcDbLine
 10
263.0
 20
-325.0
 30
0.0
 11
255.4981323242187
 21
-322.9898806145492
 31
0.0
  0
TEXT
  5
105
330
240
100
AcDbEntity
  8
DIMNSIONS
 62
     7
100
AcDbText
 10
203.9333333333332
 20
-322.0183333333334
 30
0.0
 40
8.144205729166666
  1
26.0
 41
0.7
 11
203.9333333333332
 21
-313.8741276041667
 31
0.0
100
AcDbText
 73
     3
  0
TEXT
  5
106
330
240
100
AcDbEntity
  8
DIMNSIONS
 62
     7
100
AcDbText
 10
112.5
 20
-447.56
 30
0.0
 40
8.144205729166666
  1
※センター振り分け
 41
0.7
 11
112.5
 21
-439.4157942708333
 31
0.0
100
AcDbText
 73
     3
  0
TEXT
  5
107
330
240
100
AcDbEntity
  8
DIMNSIONS
 62
     7
100
AcDbText
 10
226.5875
 20
-315.5836666666666
 30
0.0
 40
5.700944010416665
  1
※
 41
0.7
 11
226.5875
 21
-309.8827226562499
 31
0.0
100
AcDbText
 73
     3
  0
TEXT
  5
108
330
240
100
AcDbEntity
  8
DIMNSIONS
 62
     7
100
AcDbText
 10
203.0836666666667
 20
-98.41250000000002
 30
0.0
 40
5.700944010416665
  1
※
 50
90.0
 41
0.7
 11
197.38272265625
 21
-98.41250000000002
 31
0.0
100
AcDbText
 73
     3
  0
TEXT
  5
109
330
240
100
AcDbEntity
  8
DIMNSIONS
 62
     7
100
AcDbText
 10
103.0836666666666
 20
-373.4125
 30
0.0
 40
5.700944010416665
  1
※
 50
90.0
 41
0.7
 11
97.38272265624999
 21
-373.4125
 31
0.0
100
AcDbText
 73
     3
  0
LINE
  5
10A
330
240
100
AcDbEntity
  8
DIMNSIONS
  6
Continuous
 62
     7
100
AcDbLine
 10
178.9194630580901
 20
-66.95984350055704
 30
0.0
 11
187.5
 21
-37.5
 31
0.0
  0
LINE
  5
10B
330
240
100
AcDbEntity
  8
DIMNSIONS
  6
Continuous
 62
     7
100
AcDbLine
 10
178.9194630580901
 20
-66.95984350055704
 30
0.0
 11
179.1905101707027
 21
-59.19806973218161
 31
0.0
  0
LINE
  5
10C
330
240
100
AcDbEntity
  8
DIMNSIONS
  6
Continuous
 62
     7
100
AcDbLine
 10
178.9194630580901
 20
-66.95984350055704
 30
0.0
 11
183.0350836274227
 21
-60.37347379502253
 31
0.0
  0
LINE
  5
10D
330
240
100
AcDbEntity
  8
DIMNSIONS
  6
Continuous
 62
     7
100
AcDbLine
 10
187.5
 20
-37.5
 30
0.0
 11
193.5
 21
-37.5
 31
0.0
  0
TEXT
  5
10E
330
240
100
AcDbEntity
  8
DIMNSIONS
 62
     7
100
AcDbText
 10
193.5
 20
-41.31000000000001
 30
0.0
 40
8.144205729166666
  1
\U+03C63.0(16ヵ所)
 41
0.7
 11
193.5
 21
-33.16579427083335
 31
0.0
100
AcDbText
 73
     3
  0
LINE
  5
10F
330
240
100
AcDbEntity
  8
DIMNSIONS
  6
Continuous
 62
     7
100
AcDbLine
 10
78.91946305809105
 20
-341.9598435005538
 30
0.0
 11
87.5
 21
-312.5
 31
0.0
  0
LINE
  5
110
330
240
100
AcDbEntity
  8
DIMNSIONS
  6
Continuous
 62
     7
100
AcDbLine
 10
78.91946305809105
 20
-341.9598435005538
 30
0.0
 11
79.19051017070362
 21
-334.1980697321784
 31
0.0
  0
LINE
  5
111
330
240
100
AcDbEntity
  8
DIMNSIONS
  6
Continuous
 62
     7
100
AcDbLine
 10
78.91946305809105
 20
-341.9598435005538
 30
0.0
 11
83.03508362742366
 21
-335.3734737950193
 31
0.0
  0
LINE
  5
112
330
240
100
AcDbEntity
  8
DIMNSIONS
  6
Continuous
 62
     7
100
AcDbLine
 10
87.5
 20
-312.5
 30
0.0
 11
93.49999999999999
 21
-312.5
 31
0.0
  0
TEXT
  5
113
330
240
100
AcDbEntity
  8
DIMNSIONS
 62
     7
100
AcDbText
 10
93.49999999999999
 20
-316.31
 30
0.0
 40
8.144205729166666
  1
\U+03C63.0(8ヵ所)
 41
0.7
 11
93.49999999999999
 21
-308.1657942708333
 31
0.0
100
AcDbText
 73
     3
  0
LINE
  5
114
330
240
100
AcDbEntity
  8
DIMNSIONS
  6
Continuous
 62
     7
100
AcDbLine
 10
263.9945617668451
 20
-363.2610970097231
 30
0.0
 11
287.5
 21
-325.0
 31
0.0
  0
LINE
  5
115
330
240
100
AcDbEntity
  8
DIMNSIONS
  6
Continuous
 62
     7
100
AcDbLine
 10
263.9945617668451
 20
-363.2610970097231
 30
0.0
 11
266.2652680480915
 21
-355.8339514239003
 31
0.0
  0
LINE
  5
116
330
240
100
AcDbEntity
  8
DIMNSIONS
  6
Continuous
 62
     7
100
AcDbLine
 10
263.9945617668451
 20
-363.2610970097231
 30
0.0
 11
269.6746238838486
 21
-357.9643533954182
 31
0.0
  0
LINE
  5
117
330
240
100
AcDbEntity
  8
DIMNSIONS
  6
Continuous
 62
     7
100
AcDbLine
 10
287.5
 20
-325.0
 30
0.0
 11
293.5
 21
-325.0
 31
0.0
  0
TEXT
  5
118
330
240
100
AcDbEntity
  8
DIMNSIONS
 62
     7
100
AcDbText
 10
293.5
 20
-328.81
 30
0.0
 40
8.144205729166666
  1
\U+03C63.8(2ヵ所)
 41
0.7
 11
293.5
 21
-320.6657942708333
 31
0.0
100
AcDbText
 73
     3
  0
LINE
  5
119
330
240
100
AcDbEntity
  8
DIMNSIONS
  6
Continuous
 62
     7
100
AcDbLine
 10
231.0
 20
-364.88
 30
0.0
 11
206.5
 21
-364.88
 31
0.0
  0
LINE
  5
11A
330
240
100
AcDbEntity
  8
DIMNSIONS
  6
Continuous
 62
     7
100
AcDbLine
 10
226.9000000000001
 20
-374.98
 30
0.0
 11
206.5
 21
-374.98
 31
0.0
  0
LINE
  5
11B
330
240
100
AcDbEntity
  8
DIMNSIONS
  6
Continuous
 62
     7
100
AcDbLine
 10
212.5
 20
-374.98
 30
0.0
 11
212.5
 21
-364.88
 31
0.0
  0
LINE
  5
11C
330
240
100
AcDbEntity
  8
DIMNSIONS
  6
Continuous
 62
     7
100
AcDbLine
 10
212.5
 20
-364.88
 30
0.0
 11
212.5
 21
-349.88
 31
0.0
  0
LINE
  5
11D
330
240
100
AcDbEntity
  8
DIMNSIONS
  6
Continuous
 62
     7
100
AcDbLine
 10
212.5
 20
-364.88
 30
0.0
 11
210.4898806145493
 21
-357.3781323242188
 31
0.0
  0
LINE
  5
11E
330
240
100
AcDbEntity
  8
DIMNSIONS
  6
Continuous
 62
     7
100
AcDbLine
 10
212.5
 20
-364.88
 30
0.0
 11
214.5101193854507
 21
-357.3781323242188
 31
0.0
  0
LINE
  5
11F
330
240
100
AcDbEntity
  8
DIMNSIONS
  6
Continuous
 62
     7
100
AcDbLine
 10
212.5
 20
-374.98
 30
0.0
 11
212.5
 21
-402.4166666666666
 31
0.0
  0
LINE
  5
120
330
240
100
AcDbEntity
  8
DIMNSIONS
  6
Continuous
 62
     7
100
AcDbLine
 10
212.5
 20
-374.98
 30
0.0
 11
214.5101193854507
 21
-382.4818676757812
 31
0.0
  0
LINE
  5
121
330
240
100
AcDbEntity
  8
DIMNSIONS
  6
Continuous
 62
     7
100
AcDbLine
 10
212.5
 20
-374.98
 30
0.0
 11
210.4898806145493
 21
-382.4818676757812
 31
0.0
  0
TEXT
  5
122
330
240
100
AcDbEntity
  8
DIMNSIONS
 62
     7
100
AcDbText
 10
209.5183333333333
 20
-402.4166666666666
 30
0.0
 40
8.144205729166666
  1
10.1
 50
90.0
 41
0.7
 11
201.3741276041667
 21
-402.4166666666666
 31
0.0
100
AcDbText
 73
     3
  0
TEXT
  5
123
330
240
100
AcDbEntity
  8
DATA
 62
     7
100
AcDbText
 10
250.4710520281034
 20
-474.293901880581
 30
0.0
 40
7.329785156249999
  1
AKG
 41
0.7
 11
250.4710520281034
 21
-466.9641167243311
 31
0.0
100
AcDbText
 73
     3
  0
TEXT
  5
124
330
240
100
AcDbEntity
  8
DATA
 62
     7
100
AcDbText
 10
250.4710520281034
 20
-484.7247704805812
 30
0.0
 40
4.886531132812499
  1
ラックマウント金具
 41
0.7
 11
250.4710520281034
 21
-479.8382393477687
 31
0.0
100
AcDbText
 73
     3
  0
TEXT
  5
125
330
240
100
AcDbEntity
  8
DATA
 62
     7
100
AcDbText
 10
-157.3252000440871
 20
-505.8077385472477
 30
0.0
 40
5.700944010416667
  1
※仕様及び外観は予告なく変更されることがあります。
 41
0.7
 11
-157.3252000440871
 21
-500.1067945368311
 31
0.0
100
AcDbText
 73
     3
  0
TEXT
  5
126
330
240
100
AcDbEntity
  8
DATA
 62
     7
100
AcDbText
 10
-157.3252000440871
 20
-513.216071880581
 30
0.0
 40
5.700944010416667
  1
　また、同一商品でも若干の個体差があることがあります。ご了承ください。
 41
0.7
 11
-157.3252000440871
 21
-507.5151278701643
 31
0.0
100
AcDbText
 73
     3
  0
TEXT
  5
127
330
240
100
AcDbEntity
  8
DATA
 62
     7
100
AcDbText
 10
250.4710520281034
 20
-496.0439018805811
 30
0.0
 40
7.329785156249999
  1
RMU40 MINI
 41
0.7
 11
250.4710520281034
 21
-488.714116724331
 31
0.0
100
AcDbText
 73
     3
  0
LINE
  5
128
330
240
100
AcDbEntity
  8
DATA
  6
Continuous
 62
     7
100
AcDbLine
 10
-58.29999999999978
 20
-191.98
 30
0.0
 11
-58.29999999999978
 21
-295.98
 31
0.0
  0
LINE
  5
129
330
240
100
AcDbEntity
  8
DATA
  6
Continuous
 62
     7
100
AcDbLine
 10
-60.29999999999978
 20
-191.98
 30
0.0
 11
-58.29999999999978
 21
-191.98
 31
0.0
  0
LINE
  5
12A
330
240
100
AcDbEntity
  8
DATA
  6
Continuous
 62
     7
100
AcDbLine
 10
-60.29999999999978
 20
-295.98
 30
0.0
 11
-60.29999999999978
 21
-191.98
 31
0.0
  0
LINE
  5
12B
330
240
100
AcDbEntity
  8
DATA
  6
Continuous
 62
     7
100
AcDbLine
 10
-62.29999999999979
 20
-299.98
 30
0.0
 11
-100.0
 21
-299.98
 31
0.0
  0
LINE
  5
12C
330
240
100
AcDbEntity
  8
DATA
  6
Continuous
 62
     7
100
AcDbLine
 10
-100.0
 20
-297.98
 30
0.0
 11
-62.29999999999979
 21
-297.98
 31
0.0
  0
LINE
  5
12D
330
240
100
AcDbEntity
  8
DATA
  6
Continuous
 62
     7
100
AcDbLine
 10
-100.0
 20
-299.98
 30
0.0
 11
-100.0
 21
-297.98
 31
0.0
  0
ARC
  5
12E
330
240
100
AcDbEntity
  8
DATA
  6
Continuous
 62
     7
100
AcDbCircle
 10
-62.29999999999979
 20
-295.98
 30
0.0
 40
4.0
100
AcDbArc
 50
270.0
 51
0.0
  0
ARC
  5
12F
330
240
100
AcDbEntity
  8
DATA
  6
Continuous
 62
     7
100
AcDbCircle
 10
-62.29999999999979
 20
-295.98
 30
0.0
 40
2.0
100
AcDbArc
 50
270.0
 51
0.0
  0
LINE
  5
130
330
240
100
AcDbEntity
  8
DATA
  6
Continuous
 62
     7
100
AcDbLine
 10
-100.0
 20
-372.17
 30
0.0
 11
-100.0
 21
-334.13
 31
0.0
  0
LINE
  5
131
330
240
100
AcDbEntity
  8
DATA
  6
Continuous
 62
     7
100
AcDbLine
 10
-100.0
 20
-372.17
 30
0.0
 11
-97.17000000000012
 21
-375.0
 31
0.0
  0
LINE
  5
132
330
240
100
AcDbEntity
  8
DATA
  6
Continuous
 62
     7
100
AcDbLine
 10
-58.30000000000024
 20
-375.0
 30
0.0
 11
-97.17000000000012
 21
-375.0
 31
0.0
  0
LINE
  5
133
330
240
100
AcDbEntity
  8
DATA
  6
Continuous
 62
     7
100
AcDbLine
 10
-58.30000000000024
 20
-331.2999999999999
 30
0.0
 11
-58.30000000000024
 21
-375.0
 31
0.0
  0
LINE
  5
134
330
240
100
AcDbEntity
  8
DATA
  6
Continuous
 62
     7
100
AcDbLine
 10
-97.17000000000012
 20
-331.2999999999999
 30
0.0
 11
-58.30000000000024
 21
-331.2999999999999
 31
0.0
  0
LINE
  5
135
330
240
100
AcDbEntity
  8
DATA
  6
Continuous
 62
     7
100
AcDbLine
 10
-100.0
 20
-334.13
 30
0.0
 11
-97.17000000000012
 21
-331.2999999999999
 31
0.0
  0
LINE
  5
136
330
240
100
AcDbEntity
  8
DATA
  6
Continuous
 62
     7
100
AcDbLine
 10
-90.00000000000005
 20
-372.5
 30
0.0
 11
-93.00000000000004
 21
-372.5
 31
0.0
  0
LINE
  5
137
330
240
100
AcDbEntity
  8
DATA
  6
Continuous
 62
     7
100
AcDbLine
 10
-93.00000000000004
 20
-365.5000000000001
 30
0.0
 11
-90.00000000000005
 21
-365.5000000000001
 31
0.0
  0
ARC
  5
138
330
240
100
AcDbEntity
  8
DATA
  6
Continuous
 62
     7
100
AcDbCircle
 10
-93.00000000000004
 20
-369.0000000000001
 30
0.0
 40
3.5
100
AcDbArc
 50
90.0
 51
270.0
  0
ARC
  5
139
330
240
100
AcDbEntity
  8
DATA
  6
Continuous
 62
     7
100
AcDbCircle
 10
-90.00000000000188
 20
-368.9999999999908
 30
0.0
 40
3.499999999990791
100
AcDbArc
 50
270.0
 51
89.99999999997022
  0
LINE
  5
13A
330
240
100
AcDbEntity
  8
DATA
  6
Continuous
 62
     7
100
AcDbLine
 10
-90.00000000000005
 20
-333.7999999999998
 30
0.0
 11
-93.00000000000004
 21
-333.7999999999998
 31
0.0
  0
LINE
  5
13B
330
240
100
AcDbEntity
  8
DATA
  6
Continuous
 62
     7
100
AcDbLine
 10
-93.00000000000004
 20
-340.7999999999998
 30
0.0
 11
-90.00000000000005
 21
-340.7999999999998
 31
0.0
  0
ARC
  5
13C
330
240
100
AcDbEntity
  8
DATA
  6
Continuous
 62
     7
100
AcDbCircle
 10
-93.00000000000004
 20
-337.2999999999998
 30
0.0
 40
3.5
100
AcDbArc
 50
90.0
 51
270.0
  0
ARC
  5
13D
330
240
100
AcDbEntity
  8
DATA
  6
Continuous
 62
     7
100
AcDbCircle
 10
-90.00000000000188
 20
-337.3000000000092
 30
0.0
 40
3.499999999990791
100
AcDbArc
 50
270.0000000000297
 51
90.00000000000003
  0
ARC
  5
13E
330
240
100
AcDbEntity
  8
DATA
  6
Continuous
 62
     7
100
AcDbCircle
 10
-70.49999999999958
 20
-353.1500000000024
 30
0.0
 40
6.500000000002494
100
AcDbArc
 50
122.2042275036779
 51
57.79577249606028
  0
LINE
  5
13F
330
240
100
AcDbEntity
  8
DATA
  6
Continuous
 62
     7
100
AcDbLine
 10
-73.964101615135
 20
-347.6499999999999
 30
0.0
 11
-67.03589838486465
 21
-347.6499999999999
 31
0.0
  0
LINE
  5
140
330
240
100
AcDbEntity
  8
DATA
  6
Continuous
 62
     7
100
AcDbLine
 10
-61.8400000000002
 20
-342.65
 30
0.0
 11
-58.30000000000024
 21
-342.65
 31
0.0
  0
LINE
  5
141
330
240
100
AcDbEntity
  8
DATA
  6
Continuous
 62
     7
100
AcDbLine
 10
-61.8400000000002
 20
-342.65
 30
0.0
 11
-59.47157287517126
 21
-343.4863090130045
 31
0.0
  0
LINE
  5
142
330
240
100
AcDbEntity
  8
DATA
  6
Continuous
 62
     7
100
AcDbLine
 10
-61.8400000000002
 20
-342.65
 30
0.0
 11
-59.47157287517126
 21
-341.8136909869954
 31
0.0
  0
LINE
  5
143
330
240
100
AcDbEntity
  8
DATA
  6
Continuous
 62
     7
100
AcDbLine
 10
-58.30000000000024
 20
-343.072618026009
 30
0.0
 11
-59.47157287517126
 21
-343.4863090130045
 31
0.0
  0
LINE
  5
144
330
240
100
AcDbEntity
  8
DATA
  6
Continuous
 62
     7
100
AcDbLine
 10
-58.30000000000024
 20
-342.2273819739909
 30
0.0
 11
-59.47157287517126
 21
-341.8136909869954
 31
0.0
  0
LINE
  5
145
330
240
100
AcDbEntity
  8
DATA
  6
Continuous
 62
     7
100
AcDbLine
 10
-61.8400000000002
 20
-363.65
 30
0.0
 11
-58.30000000000024
 21
-363.65
 31
0.0
  0
LINE
  5
146
330
240
100
AcDbEntity
  8
DATA
  6
Continuous
 62
     7
100
AcDbLine
 10
-61.8400000000002
 20
-363.65
 30
0.0
 11
-59.47157287517126
 21
-362.8136909869954
 31
0.0
  0
LINE
  5
147
330
240
100
AcDbEntity
  8
DATA
  6
Continuous
 62
     7
100
AcDbLine
 10
-61.8400000000002
 20
-363.65
 30
0.0
 11
-59.47157287517126
 21
-364.4863090130045
 31
0.0
  0
LINE
  5
148
330
240
100
AcDbEntity
  8
DATA
  6
Continuous
 62
     7
100
AcDbLine
 10
-58.30000000000024
 20
-363.2273819739909
 30
0.0
 11
-59.47157287517126
 21
-362.8136909869954
 31
0.0
  0
LINE
  5
149
330
240
100
AcDbEntity
  8
DATA
  6
Continuous
 62
     7
100
AcDbLine
 10
-58.30000000000024
 20
-364.0726180260089
 30
0.0
 11
-59.47157287517126
 21
-364.4863090130045
 31
0.0
  0
LINE
  5
14A
330
240
100
AcDbEntity
  8
DATA
  6
Continuous
 62
     7
100
AcDbLine
 10
33.5
 20
-56.30000000000018
 30
0.0
 11
31.5
 21
-56.30000000000018
 31
0.0
  0
LINE
  5
14B
330
240
100
AcDbEntity
  8
DATA
  6
Continuous
 62
     7
100
AcDbLine
 10
33.5
 20
-100.0
 30
0.0
 11
33.5
 21
-56.30000000000018
 31
0.0
  0
LINE
  5
14C
330
240
100
AcDbEntity
  8
DATA
  6
Continuous
 62
     7
100
AcDbLine
 10
-100.0
 20
-100.0
 30
0.0
 11
33.5
 21
-100.0
 31
0.0
  0
LINE
  5
14D
330
240
100
AcDbEntity
  8
DATA
  6
Continuous
 62
     7
100
AcDbLine
 10
-100.0
 20
-56.30000000000018
 30
0.0
 11
-100.0
 21
-100.0
 31
0.0
  0
LINE
  5
14E
330
240
100
AcDbEntity
  8
DATA
  6
Continuous
 62
     7
100
AcDbLine
 10
-100.0
 20
-56.30000000000018
 30
0.0
 11
33.5
 21
-56.30000000000018
 31
0.0
  0
LINE
  5
14F
330
240
100
AcDbEntity
  8
DATA
  6
Continuous
 62
     7
100
AcDbLine
 10
29.96000000000004
 20
-88.65000000000009
 30
0.0
 11
33.5
 21
-88.65000000000009
 31
0.0
  0
LINE
  5
150
330
240
100
AcDbEntity
  8
DATA
  6
Continuous
 62
     7
100
AcDbLine
 10
29.96000000000004
 20
-88.65000000000009
 30
0.0
 11
32.32842712482875
 21
-87.81369098699565
 31
0.0
  0
LINE
  5
151
330
240
100
AcDbEntity
  8
DATA
  6
Continuous
 62
     7
100
AcDbLine
 10
29.96000000000004
 20
-88.65000000000009
 30
0.0
 11
32.32842712482875
 21
-89.48630901300473
 31
0.0
  0
LINE
  5
152
330
240
100
AcDbEntity
  8
DATA
  6
Continuous
 62
     7
100
AcDbLine
 10
33.5
 20
-88.22738197399123
 30
0.0
 11
32.32842712482875
 21
-87.81369098699565
 31
0.0
  0
LINE
  5
153
330
240
100
AcDbEntity
  8
DATA
  6
Continuous
 62
     7
100
AcDbLine
 10
33.5
 20
-89.07261802600919
 30
0.0
 11
32.32842712482875
 21
-89.48630901300473
 31
0.0
  0
LINE
  5
154
330
240
100
AcDbEntity
  8
DATA
  6
Continuous
 62
     7
100
AcDbLine
 10
29.96000000000004
 20
-67.65000000000009
 30
0.0
 11
33.5
 21
-67.65000000000009
 31
0.0
  0
LINE
  5
155
330
240
100
AcDbEntity
  8
DATA
  6
Continuous
 62
     7
100
AcDbLine
 10
29.96000000000004
 20
-67.65000000000009
 30
0.0
 11
32.32842712482875
 21
-68.48630901300476
 31
0.0
  0
LINE
  5
156
330
240
100
AcDbEntity
  8
DATA
  6
Continuous
 62
     7
100
AcDbLine
 10
29.96000000000004
 20
-67.65000000000009
 30
0.0
 11
32.32842712482875
 21
-66.81369098699565
 31
0.0
  0
LINE
  5
157
330
240
100
AcDbEntity
  8
DATA
  6
Continuous
 62
     7
100
AcDbLine
 10
33.5
 20
-68.07261802600921
 30
0.0
 11
32.32842712482875
 21
-68.48630901300476
 31
0.0
  0
LINE
  5
158
330
240
100
AcDbEntity
  8
DATA
  6
Continuous
 62
     7
100
AcDbLine
 10
33.5
 20
-67.22738197399123
 30
0.0
 11
32.32842712482875
 21
-66.81369098699565
 31
0.0
  0
LINE
  5
159
330
240
100
AcDbEntity
  8
DATA
  6
Continuous
 62
     7
100
AcDbLine
 10
-96.46000000000004
 20
-88.65000000000009
 30
0.0
 11
-100.0
 21
-88.65000000000009
 31
0.0
  0
LINE
  5
15A
330
240
100
AcDbEntity
  8
DATA
  6
Continuous
 62
     7
100
AcDbLine
 10
-96.46000000000004
 20
-88.65000000000009
 30
0.0
 11
-98.82842712482876
 21
-87.81369098699565
 31
0.0
  0
LINE
  5
15B
330
240
100
AcDbEntity
  8
DATA
  6
Continuous
 62
     7
100
AcDbLine
 10
-96.46000000000004
 20
-88.65000000000009
 30
0.0
 11
-98.82842712482876
 21
-89.48630901300473
 31
0.0
  0
LINE
  5
15C
330
240
100
AcDbEntity
  8
DATA
  6
Continuous
 62
     7
100
AcDbLine
 10
-100.0
 20
-88.22738197399123
 30
0.0
 11
-98.82842712482876
 21
-87.81369098699565
 31
0.0
  0
LINE
  5
15D
330
240
100
AcDbEntity
  8
DATA
  6
Continuous
 62
     7
100
AcDbLine
 10
-100.0
 20
-89.07261802600919
 30
0.0
 11
-98.82842712482876
 21
-89.48630901300473
 31
0.0
  0
LINE
  5
15E
330
240
100
AcDbEntity
  8
DATA
  6
Continuous
 62
     7
100
AcDbLine
 10
-96.46000000000004
 20
-67.65000000000009
 30
0.0
 11
-100.0
 21
-67.65000000000009
 31
0.0
  0
LINE
  5
15F
330
240
100
AcDbEntity
  8
DATA
  6
Continuous
 62
     7
100
AcDbLine
 10
-96.46000000000004
 20
-67.65000000000009
 30
0.0
 11
-98.82842712482876
 21
-68.48630901300476
 31
0.0
  0
LINE
  5
160
330
240
100
AcDbEntity
  8
DATA
  6
Continuous
 62
     7
100
AcDbLine
 10
-96.46000000000004
 20
-67.65000000000009
 30
0.0
 11
-98.82842712482876
 21
-66.81369098699565
 31
0.0
  0
LINE
  5
161
330
240
100
AcDbEntity
  8
DATA
  6
Continuous
 62
     7
100
AcDbLine
 10
-100.0
 20
-68.07261802600921
 30
0.0
 11
-98.82842712482876
 21
-68.48630901300476
 31
0.0
  0
LINE
  5
162
330
240
100
AcDbEntity
  8
DATA
  6
Continuous
 62
     7
100
AcDbLine
 10
-100.0
 20
-67.22738197399123
 30
0.0
 11
-98.82842712482876
 21
-66.81369098699565
 31
0.0
  0
LWPOLYLINE
  5
163
330
240
100
AcDbEntity
  8
DATA
  6
Continuous
 62
     7
100
AcDbPolyline
 90
        4
 70
     1
 43
0.0
 10
300.0
 20
-354.78
 10
302.5000000000001
 20
-354.78
 10
302.5000000000001
 20
-374.98
 10
300.0
 20
-374.98
  0
LINE
  5
16A
330
240
100
AcDbEntity
  8
DATA
  6
Continuous
 62
     7
100
AcDbLine
 10
29.49999999999999
 20
-0.0000000000002274
 30
0.0
 11
-96.0
 21
-0.0000000000002274
 31
0.0
  0
LINE
  5
16B
330
240
100
AcDbEntity
  8
DATA
  6
Continuous
 62
     7
100
AcDbLine
 10
-96.0
 20
1.999999999999772
 30
0.0
 11
29.49999999999999
 21
1.999999999999772
 31
0.0
  0
LINE
  5
16C
330
240
100
AcDbEntity
  8
DATA
  6
Continuous
 62
     7
100
AcDbLine
 10
-100.0
 20
3.999999999999772
 30
0.0
 11
-100.0
 21
108.0000000000001
 31
0.0
  0
LINE
  5
16D
330
240
100
AcDbEntity
  8
DATA
  6
Continuous
 62
     7
100
AcDbLine
 10
-98.0
 20
108.0000000000001
 30
0.0
 11
-98.0
 21
3.999999999999772
 31
0.0
  0
LINE
  5
16E
330
240
100
AcDbEntity
  8
DATA
  6
Continuous
 62
     7
100
AcDbLine
 10
-100.0
 20
108.0000000000001
 30
0.0
 11
-98.0
 21
108.0000000000001
 31
0.0
  0
ARC
  5
16F
330
240
100
AcDbEntity
  8
DATA
  6
Continuous
 62
     7
100
AcDbCircle
 10
-96.0
 20
3.999999999999772
 30
0.0
 40
4.0
100
AcDbArc
 50
180.0
 51
270.0
  0
ARC
  5
170
330
240
100
AcDbEntity
  8
DATA
  6
Continuous
 62
     7
100
AcDbCircle
 10
-96.0
 20
3.999999999999772
 30
0.0
 40
2.0
100
AcDbArc
 50
180.0
 51
270.0
  0
LINE
  5
171
330
240
100
AcDbEntity
  8
DATA
  6
Continuous
 62
     7
100
AcDbLine
 10
33.49999999999999
 20
3.999999999999772
 30
0.0
 11
33.49999999999999
 21
108.0000000000001
 31
0.0
  0
LINE
  5
172
330
240
100
AcDbEntity
  8
DATA
  6
Continuous
 62
     7
100
AcDbLine
 10
31.49999999999999
 20
108.0000000000001
 30
0.0
 11
31.49999999999999
 21
3.999999999999772
 31
0.0
  0
LINE
  5
173
330
240
100
AcDbEntity
  8
DATA
  6
Continuous
 62
     7
100
AcDbLine
 10
33.49999999999999
 20
108.0000000000001
 30
0.0
 11
31.49999999999999
 21
108.0000000000001
 31
0.0
  0
ARC
  5
174
330
240
100
AcDbEntity
  8
DATA
  6
Continuous
 62
     7
100
AcDbCircle
 10
29.49999999999997
 20
3.999999999999772
 30
0.0
 40
4.0
100
AcDbArc
 50
270.0
 51
0.0
  0
ARC
  5
175
330
240
100
AcDbEntity
  8
DATA
  6
Continuous
 62
     7
100
AcDbCircle
 10
29.49999999999997
 20
3.999999999999772
 30
0.0
 40
2.0
100
AcDbArc
 50
270.0
 51
0.0
  0
LINE
  5
176
330
240
100
AcDbEntity
  8
DATA
  6
Continuous
 62
     7
100
AcDbLine
 10
182.9999999999999
 20
-56.30000000000018
 30
0.0
 11
182.9999999999999
 21
-100.0000000000002
 31
0.0
  0
LINE
  5
177
330
240
100
AcDbEntity
  8
DATA
  6
Continuous
 62
     7
100
AcDbLine
 10
75.0
 20
-56.30000000000018
 30
0.0
 11
182.9999999999999
 21
-56.30000000000018
 31
0.0
  0
LINE
  5
178
330
240
100
AcDbEntity
  8
DATA
  6
Continuous
 62
     7
100
AcDbLine
 10
75.0
 20
-100.0000000000002
 30
0.0
 11
75.0
 21
-56.30000000000018
 31
0.0
  0
LINE
  5
179
330
240
100
AcDbEntity
  8
DATA
  6
Continuous
 62
     7
100
AcDbLine
 10
182.9999999999999
 20
-100.0000000000002
 30
0.0
 11
75.0
 21
-100.0000000000002
 31
0.0
  0
LINE
  5
17A
330
240
100
AcDbEntity
  8
DATA
  6
Continuous
 62
     7
100
AcDbLine
 10
78.53999999999998
 20
-88.65000000000019
 30
0.0
 11
75.0
 21
-88.65000000000019
 31
0.0
  0
LINE
  5
17B
330
240
100
AcDbEntity
  8
DATA
  6
Continuous
 62
     7
100
AcDbLine
 10
78.53999999999998
 20
-88.65000000000019
 30
0.0
 11
76.17157287517101
 21
-87.81369098699565
 31
0.0
  0
LINE
  5
17C
330
240
100
AcDbEntity
  8
DATA
  6
Continuous
 62
     7
100
AcDbLine
 10
78.53999999999998
 20
-88.65000000000019
 30
0.0
 11
76.17157287517101
 21
-89.48630901300473
 31
0.0
  0
LINE
  5
17D
330
240
100
AcDbEntity
  8
DATA
  6
Continuous
 62
     7
100
AcDbLine
 10
75.0
 20
-88.22738197399123
 30
0.0
 11
76.17157287517101
 21
-87.81369098699565
 31
0.0
  0
LINE
  5
17E
330
240
100
AcDbEntity
  8
DATA
  6
Continuous
 62
     7
100
AcDbLine
 10
75.0
 20
-89.07261802600919
 30
0.0
 11
76.17157287517101
 21
-89.48630901300473
 31
0.0
  0
LINE
  5
17F
330
240
100
AcDbEntity
  8
DATA
  6
Continuous
 62
     7
100
AcDbLine
 10
78.53999999999998
 20
-67.6500000000002
 30
0.0
 11
75.0
 21
-67.6500000000002
 31
0.0
  0
LINE
  5
180
330
240
100
AcDbEntity
  8
DATA
  6
Continuous
 62
     7
100
AcDbLine
 10
78.53999999999998
 20
-67.6500000000002
 30
0.0
 11
76.17157287517101
 21
-68.48630901300476
 31
0.0
  0
LINE
  5
181
330
240
100
AcDbEntity
  8
DATA
  6
Continuous
 62
     7
100
AcDbLine
 10
78.53999999999998
 20
-67.6500000000002
 30
0.0
 11
76.17157287517101
 21
-66.81369098699565
 31
0.0
  0
LINE
  5
182
330
240
100
AcDbEntity
  8
DATA
  6
Continuous
 62
     7
100
AcDbLine
 10
75.0
 20
-68.07261802600921
 30
0.0
 11
76.17157287517101
 21
-68.48630901300476
 31
0.0
  0
LINE
  5
183
330
240
100
AcDbEntity
  8
DATA
  6
Continuous
 62
     7
100
AcDbLine
 10
75.0
 20
-67.22738197399123
 30
0.0
 11
76.17157287517101
 21
-66.81369098699565
 31
0.0
  0
CIRCLE
  5
184
330
240
100
AcDbEntity
  8
DATA
  6
Continuous
 62
     7
100
AcDbCircle
 10
159.9999999999998
 20
-68.40000000000021
 30
0.0
 40
1.5
  0
CIRCLE
  5
185
330
240
100
AcDbEntity
  8
DATA
  6
Continuous
 62
     7
100
AcDbCircle
 10
159.9999999999998
 20
-87.90000000000018
 30
0.0
 40
1.5
  0
CIRCLE
  5
186
330
240
100
AcDbEntity
  8
DATA
  6
Continuous
 62
     7
100
AcDbCircle
 10
95.00000000000012
 20
-68.40000000000021
 30
0.0
 40
1.5
  0
CIRCLE
  5
187
330
240
100
AcDbEntity
  8
DATA
  6
Continuous
 62
     7
100
AcDbCircle
 10
94.99999999999987
 20
-87.90000000000018
 30
0.0
 40
1.5
  0
CIRCLE
  5
188
330
240
100
AcDbEntity
  8
DATA
  6
Continuous
 62
     7
100
AcDbCircle
 10
178.4999999999999
 20
-68.40000000000021
 30
0.0
 40
1.5
  0
CIRCLE
  5
189
330
240
100
AcDbEntity
  8
DATA
  6
Continuous
 62
     7
100
AcDbCircle
 10
178.4999999999999
 20
-87.90000000000018
 30
0.0
 40
1.5
  0
CIRCLE
  5
18A
330
240
100
AcDbEntity
  8
DATA
  6
Continuous
 62
     7
100
AcDbCircle
 10
113.4999999999996
 20
-68.40000000000021
 30
0.0
 40
1.5
  0
CIRCLE
  5
18B
330
240
100
AcDbEntity
  8
DATA
  6
Continuous
 62
     7
100
AcDbCircle
 10
113.4999999999998
 20
-87.90000000000018
 30
0.0
 40
1.5
  0
LINE
  5
18C
330
240
100
AcDbEntity
  8
DATA
  6
Continuous
 62
     7
100
AcDbLine
 10
-25.0
 20
-331.2999999999999
 30
0.0
 11
-23.0
 21
-331.2999999999999
 31
0.0
  0
LINE
  5
18D
330
240
100
AcDbEntity
  8
DATA
  6
Continuous
 62
     7
100
AcDbLine
 10
-25.0
 20
-374.9999999999998
 30
0.0
 11
-25.0
 21
-331.2999999999999
 31
0.0
  0
LINE
  5
18E
330
240
100
AcDbEntity
  8
DATA
  6
Continuous
 62
     7
100
AcDbLine
 10
46.0
 20
-374.9999999999998
 30
0.0
 11
9.0
 21
-374.9999999999998
 31
0.0
  0
LINE
  5
18F
330
240
100
AcDbEntity
  8
DATA
  6
Continuous
 62
     7
100
AcDbLine
 10
-19.0
 20
-374.9999999999998
 30
0.0
 11
-25.0
 21
-374.9999999999998
 31
0.0
  0
LINE
  5
190
330
240
100
AcDbEntity
  8
DATA
  6
Continuous
 62
     7
100
AcDbLine
 10
83.0
 20
-340.8999999999998
 30
0.0
 11
83.0
 21
-365.3999999999999
 31
0.0
  0
LINE
  5
191
330
240
100
AcDbEntity
  8
DATA
  6
Continuous
 62
     7
100
AcDbLine
 10
-15.0
 20
-367.3999999999999
 30
0.0
 11
5.0
 21
-367.3999999999999
 31
0.0
  0
LINE
  5
192
330
240
100
AcDbEntity
  8
DATA
  6
Continuous
 62
     7
100
AcDbLine
 10
50.0
 20
-367.3999999999999
 30
0.0
 11
81.0
 21
-367.3999999999999
 31
0.0
  0
LINE
  5
193
330
240
100
AcDbEntity
  8
DATA
  6
Continuous
 62
     7
100
AcDbLine
 10
48.0
 20
-333.2999999999999
 30
0.0
 11
48.0
 21
-336.8999999999998
 31
0.0
  0
LINE
  5
194
330
240
100
AcDbEntity
  8
DATA
  6
Continuous
 62
     7
100
AcDbLine
 10
48.0
 20
-369.3999999999999
 30
0.0
 11
48.0
 21
-372.9999999999998
 31
0.0
  0
LINE
  5
195
330
240
100
AcDbEntity
  8
DATA
  6
Continuous
 62
     7
100
AcDbLine
 10
7.0
 20
-333.2999999999999
 30
0.0
 11
7.0
 21
-336.8999999999998
 31
0.0
  0
LINE
  5
196
330
240
100
AcDbEntity
  8
DATA
  6
Continuous
 62
     7
100
AcDbLine
 10
7.0
 20
-369.3999999999999
 30
0.0
 11
7.0
 21
-372.9999999999998
 31
0.0
  0
LINE
  5
197
330
240
100
AcDbEntity
  8
DATA
  6
Continuous
 62
     7
100
AcDbLine
 10
-17.0
 20
-333.2999999999999
 30
0.0
 11
-17.0
 21
-336.8999999999998
 31
0.0
  0
LINE
  5
198
330
240
100
AcDbEntity
  8
DATA
  6
Continuous
 62
     7
100
AcDbLine
 10
-17.0
 20
-369.3999999999999
 30
0.0
 11
-17.0
 21
-372.9999999999998
 31
0.0
  0
LINE
  5
199
330
240
100
AcDbEntity
  8
DATA
  6
Continuous
 62
     7
100
AcDbLine
 10
46.0
 20
-331.2999999999999
 30
0.0
 11
9.0
 21
-331.2999999999999
 31
0.0
  0
LINE
  5
19A
330
240
100
AcDbEntity
  8
DATA
  6
Continuous
 62
     7
100
AcDbLine
 10
-19.0
 20
-331.2999999999999
 30
0.0
 11
-25.0
 21
-331.2999999999999
 31
0.0
  0
LINE
  5
19B
330
240
100
AcDbEntity
  8
DATA
  6
Continuous
 62
     7
100
AcDbLine
 10
-15.0
 20
-338.8999999999998
 30
0.0
 11
5.0
 21
-338.8999999999998
 31
0.0
  0
LINE
  5
19C
330
240
100
AcDbEntity
  8
DATA
  6
Continuous
 62
     7
100
AcDbLine
 10
50.0
 20
-338.8999999999998
 30
0.0
 11
81.0
 21
-338.8999999999998
 31
0.0
  0
ARC
  5
19D
330
240
100
AcDbEntity
  8
DATA
  6
Continuous
 62
     7
100
AcDbCircle
 10
-19.0
 20
-333.2999999999999
 30
0.0
 40
2.0
100
AcDbArc
 50
0.0
 51
90.0
  0
ARC
  5
19E
330
240
100
AcDbEntity
  8
DATA
  6
Continuous
 62
     7
100
AcDbCircle
 10
-15.0
 20
-336.8999999999998
 30
0.0
 40
2.0
100
AcDbArc
 50
180.0
 51
270.0
  0
ARC
  5
19F
330
240
100
AcDbEntity
  8
DATA
  6
Continuous
 62
     7
100
AcDbCircle
 10
5.0
 20
-336.8999999999998
 30
0.0
 40
2.0
100
AcDbArc
 50
270.0
 51
0.0
  0
ARC
  5
1A0
330
240
100
AcDbEntity
  8
DATA
  6
Continuous
 62
     7
100
AcDbCircle
 10
9.0
 20
-333.2999999999999
 30
0.0
 40
2.0
100
AcDbArc
 50
90.0
 51
180.0
  0
ARC
  5
1A1
330
240
100
AcDbEntity
  8
DATA
  6
Continuous
 62
     7
100
AcDbCircle
 10
46.0
 20
-333.2999999999999
 30
0.0
 40
2.0
100
AcDbArc
 50
0.0
 51
90.0
  0
ARC
  5
1A2
330
240
100
AcDbEntity
  8
DATA
  6
Continuous
 62
     7
100
AcDbCircle
 10
50.0
 20
-336.8999999999998
 30
0.0
 40
2.0
100
AcDbArc
 50
180.0
 51
270.0
  0
ARC
  5
1A3
330
240
100
AcDbEntity
  8
DATA
  6
Continuous
 62
     7
100
AcDbCircle
 10
81.0
 20
-340.8999999999998
 30
0.0
 40
2.0
100
AcDbArc
 50
0.0
 51
90.0
  0
ARC
  5
1A4
330
240
100
AcDbEntity
  8
DATA
  6
Continuous
 62
     7
100
AcDbCircle
 10
81.0
 20
-365.3999999999999
 30
0.0
 40
2.0
100
AcDbArc
 50
270.0
 51
0.0
  0
ARC
  5
1A5
330
240
100
AcDbEntity
  8
DATA
  6
Continuous
 62
     7
100
AcDbCircle
 10
50.0
 20
-369.3999999999999
 30
0.0
 40
2.0
100
AcDbArc
 50
90.0
 51
180.0
  0
ARC
  5
1A6
330
240
100
AcDbEntity
  8
DATA
  6
Continuous
 62
     7
100
AcDbCircle
 10
46.0
 20
-372.9999999999998
 30
0.0
 40
2.0
100
AcDbArc
 50
270.0
 51
0.0
  0
ARC
  5
1A7
330
240
100
AcDbEntity
  8
DATA
  6
Continuous
 62
     7
100
AcDbCircle
 10
9.0
 20
-372.9999999999998
 30
0.0
 40
2.0
100
AcDbArc
 50
180.0
 51
270.0
  0
ARC
  5
1A8
330
240
100
AcDbEntity
  8
DATA
  6
Continuous
 62
     7
100
AcDbCircle
 10
5.0
 20
-369.3999999999999
 30
0.0
 40
2.0
100
AcDbArc
 50
0.0
 51
90.0
  0
ARC
  5
1A9
330
240
100
AcDbEntity
  8
DATA
  6
Continuous
 62
     7
100
AcDbCircle
 10
-15.0
 20
-369.3999999999999
 30
0.0
 40
2.0
100
AcDbArc
 50
90.0
 51
180.0
  0
ARC
  5
1AA
330
240
100
AcDbEntity
  8
DATA
  6
Continuous
 62
     7
100
AcDbCircle
 10
-19.0
 20
-372.9999999999998
 30
0.0
 40
2.0
100
AcDbArc
 50
270.0
 51
0.0
  0
LINE
  5
1AB
330
240
100
AcDbEntity
  8
DATA
  6
Continuous
 62
     7
100
AcDbLine
 10
-21.46000000000004
 20
-363.6499999999999
 30
0.0
 11
-25.0
 21
-363.6499999999999
 31
0.0
  0
LINE
  5
1AC
330
240
100
AcDbEntity
  8
DATA
  6
Continuous
 62
     7
100
AcDbLine
 10
-21.46000000000004
 20
-363.6499999999999
 30
0.0
 11
-23.82842712482875
 21
-362.8136909869954
 31
0.0
  0
LINE
  5
1AD
330
240
100
AcDbEntity
  8
DATA
  6
Continuous
 62
     7
100
AcDbLine
 10
-21.46000000000004
 20
-363.6499999999999
 30
0.0
 11
-23.82842712482875
 21
-364.4863090130045
 31
0.0
  0
LINE
  5
1AE
330
240
100
AcDbEntity
  8
DATA
  6
Continuous
 62
     7
100
AcDbLine
 10
-25.0
 20
-363.2273819739909
 30
0.0
 11
-23.82842712482875
 21
-362.8136909869954
 31
0.0
  0
LINE
  5
1AF
330
240
100
AcDbEntity
  8
DATA
  6
Continuous
 62
     7
100
AcDbLine
 10
-25.0
 20
-364.0726180260089
 30
0.0
 11
-23.82842712482875
 21
-364.4863090130045
 31
0.0
  0
LINE
  5
1B0
330
240
100
AcDbEntity
  8
DATA
  6
Continuous
 62
     7
100
AcDbLine
 10
-21.46000000000004
 20
-342.6499999999998
 30
0.0
 11
-25.0
 21
-342.6499999999998
 31
0.0
  0
LINE
  5
1B1
330
240
100
AcDbEntity
  8
DATA
  6
Continuous
 62
     7
100
AcDbLine
 10
-21.46000000000004
 20
-342.6499999999998
 30
0.0
 11
-23.82842712482875
 21
-343.4863090130045
 31
0.0
  0
LINE
  5
1B2
330
240
100
AcDbEntity
  8
DATA
  6
Continuous
 62
     7
100
AcDbLine
 10
-21.46000000000004
 20
-342.6499999999998
 30
0.0
 11
-23.82842712482875
 21
-341.8136909869954
 31
0.0
  0
LINE
  5
1B3
330
240
100
AcDbEntity
  8
DATA
  6
Continuous
 62
     7
100
AcDbLine
 10
-25.0
 20
-343.072618026009
 30
0.0
 11
-23.82842712482875
 21
-343.4863090130045
 31
0.0
  0
LINE
  5
1B4
330
240
100
AcDbEntity
  8
DATA
  6
Continuous
 62
     7
100
AcDbLine
 10
-25.0
 20
-342.2273819739909
 30
0.0
 11
-23.82842712482875
 21
-341.8136909869954
 31
0.0
  0
CIRCLE
  5
1B5
330
240
100
AcDbEntity
  8
DATA
  6
Continuous
 62
     7
100
AcDbCircle
 10
60.0
 20
-343.3999999999998
 30
0.0
 40
1.5
  0
CIRCLE
  5
1B6
330
240
100
AcDbEntity
  8
DATA
  6
Continuous
 62
     7
100
AcDbCircle
 10
60.0
 20
-362.8999999999999
 30
0.0
 40
1.5
  0
CIRCLE
  5
1B7
330
240
100
AcDbEntity
  8
DATA
  6
Continuous
 62
     7
100
AcDbCircle
 10
-4.999999999999772
 20
-343.3999999999998
 30
0.0
 40
1.5
  0
CIRCLE
  5
1B8
330
240
100
AcDbEntity
  8
DATA
  6
Continuous
 62
     7
100
AcDbCircle
 10
-5.0
 20
-362.8999999999999
 30
0.0
 40
1.5
  0
CIRCLE
  5
1B9
330
240
100
AcDbEntity
  8
DATA
  6
Continuous
 62
     7
100
AcDbCircle
 10
78.5
 20
-343.3999999999998
 30
0.0
 40
1.5
  0
CIRCLE
  5
1BA
330
240
100
AcDbEntity
  8
DATA
  6
Continuous
 62
     7
100
AcDbCircle
 10
78.5
 20
-362.8999999999999
 30
0.0
 40
1.5
  0
CIRCLE
  5
1BB
330
240
100
AcDbEntity
  8
DATA
  6
Continuous
 62
     7
100
AcDbCircle
 10
13.49999999999977
 20
-343.3999999999998
 30
0.0
 40
1.5
  0
CIRCLE
  5
1BC
330
240
100
AcDbEntity
  8
DATA
  6
Continuous
 62
     7
100
AcDbCircle
 10
13.5
 20
-362.8999999999999
 30
0.0
 40
1.5
  0
TEXT
  5
1BD
330
240
100
AcDbEntity
  8
DATA
 62
     7
100
AcDbText
 10
37.64795464409723
 20
-146.8637695312502
 30
0.0
 40
8.144205729166666
  1
U字金具
 41
0.7
 72
     1
 11
50.0
 21
-142.7916666666668
 31
0.0
100
AcDbText
 73
     2
  0
TEXT
  5
1BE
330
240
100
AcDbEntity
  8
DATA
 62
     7
100
AcDbText
 10
262.0778602430556
 20
-421.8637695312499
 30
0.0
 40
8.144205729166666
  1
連結金具
 41
0.7
 72
     1
 11
275.0
 21
-417.7916666666666
 31
0.0
100
AcDbText
 73
     2
  0
TEXT
  5
1BF
330
240
100
AcDbEntity
  8
DATA
 62
     7
100
AcDbText
 10
-49.85204535590277
 20
-421.8637695312499
 30
0.0
 40
8.144205729166666
  1
L字金具
 41
0.7
 72
     1
 11
-37.5
 21
-417.7916666666666
 31
0.0
100
AcDbText
 73
     2
  0
LINE
  5
1C0
330
240
100
AcDbEntity
  8
DATA
  6
Continuous
 62
     7
100
AcDbLine
 10
25.0
 20
-150.0
 30
0.0
 11
75.0
 21
-150.0
 31
0.0
  0
LINE
  5
1C1
330
240
100
AcDbEntity
  8
DATA
  6
Continuous
 62
     7
100
AcDbLine
 10
-56.25
 20
-425.0
 30
0.0
 11
-18.75
 21
-425.0
 31
0.0
  0
LINE
  5
1C2
330
240
100
AcDbEntity
  8
DATA
  6
Continuous
 62
     7
100
AcDbLine
 10
250.0
 20
-425.0
 30
0.0
 11
300.0
 21
-425.0
 31
0.0
  0
LINE
  5
1C3
330
240
100
AcDbEntity
  8
DATA
  6
STYLE_06
 62
     7
100
AcDbLine
 10
250.0
 20
-383.64
 30
0.0
 11
250.0
 21
-346.14
 31
0.0
  0
LINE
  5
1C4
330
240
100
AcDbEntity
  8
DATA
  6
STYLE_06
 62
     7
100
AcDbLine
 10
-37.5
 20
-353.1499999999998
 30
0.0
 11
87.5
 21
-353.1499999999998
 31
0.0
  0
LINE
  5
1C5
330
240
100
AcDbEntity
  8
DATA
  6
STYLE_06
 62
     7
100
AcDbLine
 10
62.5
 20
-78.15000000000019
 30
0.0
 11
187.5
 21
-78.15000000000019
 31
0.0
  0
LINE
  5
1C6
330
240
100
AcDbEntity
  8
DATA
  6
Continuous
 62
     7
100
AcDbLine
 10
271.0999999999999
 20
-358.78
 30
0.0
 11
271.0999999999999
 21
-370.98
 31
0.0
  0
LINE
  5
1C7
330
240
100
AcDbEntity
  8
DATA
  6
Continuous
 62
     7
100
AcDbLine
 10
232.9000000000001
 20
-354.78
 30
0.0
 11
267.0999999999999
 21
-354.78
 31
0.0
  0
LINE
  5
1C8
330
240
100
AcDbEntity
  8
DATA
  6
Continuous
 62
     7
100
AcDbLine
 10
228.9000000000001
 20
-370.98
 30
0.0
 11
228.9000000000001
 21
-358.78
 31
0.0
  0
LINE
  5
1C9
330
240
100
AcDbEntity
  8
DATA
  6
Continuous
 62
     7
100
AcDbLine
 10
267.0999999999999
 20
-374.98
 30
0.0
 11
232.9000000000001
 21
-374.98
 31
0.0
  0
ARC
  5
1CA
330
240
100
AcDbEntity
  8
DATA
  6
Continuous
 62
     7
100
AcDbCircle
 10
267.0999999999999
 20
-370.98
 30
0.0
 40
4.0
100
AcDbArc
 50
270.0
 51
0.0
  0
ARC
  5
1CB
330
240
100
AcDbEntity
  8
DATA
  6
Continuous
 62
     7
100
AcDbCircle
 10
267.0999999999999
 20
-358.78
 30
0.0
 40
4.0
100
AcDbArc
 50
0.0
 51
90.0
  0
ARC
  5
1CC
330
240
100
AcDbEntity
  8
DATA
  6
Continuous
 62
     7
100
AcDbCircle
 10
232.9000000000001
 20
-370.98
 30
0.0
 40
4.0
100
AcDbArc
 50
180.0
 51
270.0
  0
ARC
  5
1CD
330
240
100
AcDbEntity
  8
DATA
  6
Continuous
 62
     7
100
AcDbCircle
 10
232.9000000000001
 20
-358.78
 30
0.0
 40
4.0
100
AcDbArc
 50
90.0
 51
180.0
  0
CIRCLE
  5
1CE
330
240
100
AcDbEntity
  8
DATA
  6
Continuous
 62
     7
100
AcDbCircle
 10
263.0
 20
-364.88
 30
0.0
 40
1.899999999999977
  0
CIRCLE
  5
1CF
330
240
100
AcDbEntity
  8
DATA
  6
Continuous
 62
     7
100
AcDbCircle
 10
237.0
 20
-364.88
 30
0.0
 40
1.899999999999977
  0
ENDSEC
  0
SECTION
  2
OBJECTS
  0
DICTIONARY
  5
1DD
330
0
100
AcDbDictionary
281
     1
  3
ACAD_CIP_PREVIOUS_PRODUCT_INFO
350
264
  3
ACAD_COLOR
350
233
  3
ACAD_DETAILVIEWSTYLE
350
23A
  3
ACAD_GROUP
350
1DE
  3
ACAD_LAYOUT
350
232
  3
ACAD_MATERIAL
350
1E1
  3
ACAD_MLEADERSTYLE
350
236
  3
ACAD_MLINESTYLE
350
22F
  3
ACAD_PLOTSETTINGS
350
231
  3
ACAD_PLOTSTYLENAME
350
1DF
  3
ACAD_SCALELIST
350
213
  3
ACAD_SECTIONVIEWSTYLE
350
238
  3
ACAD_TABLESTYLE
350
234
  3
ACAD_VISUALSTYLE
350
1FA
  3
ACDB_RECOMPOSE_DATA
350
27C
  3
AcDbVariableDictionary
350
26F
  3
DWGPROPS
350
27D
  0
DICTIONARY
  5
265
330
225
100
AcDbDictionary
280
     1
281
     1
  3
ADSK_XREC_LAYER_RECONCILED
360
266
  0
DICTIONARY
  5
267
330
244
100
AcDbDictionary
280
     1
281
     1
  3
ADSK_XREC_LAYER_RECONCILED
360
268
  0
DICTIONARY
  5
269
330
25C
100
AcDbDictionary
280
     1
281
     1
  3
ADSK_XREC_LAYER_RECONCILED
360
26A
  0
DICTIONARY
  5
26B
330
25D
100
AcDbDictionary
280
     1
281
     1
  3
ADSK_XREC_LAYER_RECONCILED
360
26C
  0
DICTIONARY
  5
26D
330
25E
100
AcDbDictionary
280
     1
281
     1
  3
ADSK_XREC_LAYER_RECONCILED
360
26E
  0
XRECORD
  5
264
102
{ACAD_REACTORS
330
1DD
102
}
330
1DD
100
AcDbXrecord
280
     1
300
ACDLT
300
2016
300
ACDLT_F_S
  0
DICTIONARY
  5
233
102
{ACAD_REACTORS
330
1DD
102
}
330
1DD
100
AcDbDictionary
281
     1
  0
DICTIONARY
  5
23A
102
{ACAD_REACTORS
330
1DD
102
}
330
1DD
100
AcDbDictionary
281
     1
  3
Imperial24
350
23B
  0
DICTIONARY
  5
1DE
102
{ACAD_REACTORS
330
1DD
102
}
330
1DD
100
AcDbDictionary
281
     1
  0
DICTIONARY
  5
232
102
{ACAD_REACTORS
330
1DD
102
}
330
1DD
100
AcDbDictionary
281
     1
  3
Model
350
243
  3
レイアウト1
350
23F
  0
DICTIONARY
  5
1E1
102
{ACAD_REACTORS
330
1DD
102
}
330
1DD
100
AcDbDictionary
281
     1
  3
ByBlock
350
1EA
  3
ByLayer
350
1E2
  3
Global
350
1F2
  0
DICTIONARY
  5
236
102
{ACAD_REACTORS
330
1DD
102
}
330
1DD
100
AcDbDictionary
281
     1
  3
Standard
350
237
  0
DICTIONARY
  5
22F
102
{ACAD_REACTORS
330
1DD
102
}
330
1DD
100
AcDbDictionary
281
     1
  3
Standard
350
230
  0
DICTIONARY
  5
231
102
{ACAD_REACTORS
330
1DD
102
}
330
1DD
100
AcDbDictionary
281
     1
  0
ACDBDICTIONARYWDFLT
  5
1DF
102
{ACAD_REACTORS
330
1DD
102
}
330
1DD
100
AcDbDictionary
281
     1
  3
Normal
350
1E0
100
AcDbDictionaryWithDefault
340
1E0
  0
DICTIONARY
  5
213
102
{ACAD_REACTORS
330
1DD
102
}
330
1DD
100
AcDbDictionary
281
     1
  3
A0
350
214
  3
A1
350
215
  3
A2
350
216
  3
A3
350
217
  3
A4
350
218
  3
A5
350
219
  3
A6
350
21A
  3
A7
350
21B
  3
A8
350
21C
  3
A9
350
21D
  3
B0
350
21E
  3
B1
350
21F
  3
B2
350
220
  3
B3
350
221
  3
B4
350
222
  3
B5
350
223
  3
B6
350
224
  0
DICTIONARY
  5
238
102
{ACAD_REACTORS
330
1DD
102
}
330
1DD
100
AcDbDictionary
281
     1
  3
Imperial24
350
239
  0
DICTIONARY
  5
234
102
{ACAD_REACTORS
330
1DD
102
}
330
1DD
100
AcDbDictionary
281
     1
  3
Standard
350
235
  0
DICTIONARY
  5
1FA
102
{ACAD_REACTORS
330
1DD
102
}
330
1DD
100
AcDbDictionary
281
     1
  3
2dWireframe
350
200
  3
Basic
350
1FF
  3
Brighten
350
206
  3
ColorChange
350
20A
  3
Conceptual
350
203
  3
Dim
350
205
  3
EdgeColorOff
350
212
  3
Facepattern
350
209
  3
Flat
350
1FB
  3
FlatWithEdges
350
1FC
  3
Gouraud
350
1FD
  3
GouraudWithEdges
350
1FE
  3
Hidden
350
202
  3
JitterOff
350
210
  3
Linepattern
350
208
  3
OverhangOff
350
211
  3
Realistic
350
204
  3
Shaded
350
20F
  3
Shaded with edges
350
20E
  3
Shades of Gray
350
20B
  3
Sketchy
350
20C
  3
Thicken
350
207
  3
Wireframe
350
201
  3
X-Ray
350
20D
  0
XRECORD
  5
27C
102
{ACAD_REACTORS
330
1DD
102
}
330
1DD
100
AcDbXrecord
280
     1
 90
        1
330
235
  0
DICTIONARY
  5
26F
102
{ACAD_REACTORS
330
1DD
102
}
330
1DD
100
AcDbDictionary
281
     1
  3
CANNOSCALE
350
274
  3
CMLEADERSTYLE
350
271
  3
CTABLESTYLE
350
270
  3
CVIEWDETAILSTYLE
350
272
  3
CVIEWSECTIONSTYLE
350
273
  3
DIMASSOC
350
277
  3
INDEXCTL
350
276
  3
SORTENTS
350
275
  3
XCLIPFRAME
350
278
  0
XRECORD
  5
27D
102
{ACAD_REACTORS
330
1DD
102
}
330
1DD
100
AcDbXrecord
280
     1
  1
DWGPROPS COOKIE
  2

  3

  4

  6

  7

  8
sasaki_n
  9

300
=
301
=
302
=
303
=
304
=
305
=
306
=
307
=
308
=
309
=
 40
0.0003355439814815
 41
2457163.626712963
 42
2457163.628241667
  1

 90
        0
  0
XRECORD
  5
266
102
{ACAD_REACTORS
330
265
102
}
330
265
100
AcDbXrecord
280
     1
290
     1
  0
XRECORD
  5
268
102
{ACAD_REACTORS
330
267
102
}
330
267
100
AcDbXrecord
280
     1
290
     1
  0
XRECORD
  5
26A
102
{ACAD_REACTORS
330
269
102
}
330
269
100
AcDbXrecord
280
     1
290
     1
  0
XRECORD
  5
26C
102
{ACAD_REACTORS
330
26B
102
}
330
26B
100
AcDbXrecord
280
     1
290
     1
  0
XRECORD
  5
26E
102
{ACAD_REACTORS
330
26D
102
}
330
26D
100
AcDbXrecord
280
     1
290
     1
  0
ACDBDETAILVIEWSTYLE
  5
23B
102
{ACAD_XDICTIONARY
360
2B5
102
}
102
{ACAD_REACTORS
330
23A
102
}
330
23A
100
AcDbModelDocViewStyle
 70
     0
  3
Imperial24
290
     0
100
AcDbDetailViewStyle
 70
     0
 71
     0
 90
        3
 71
     1
340
226
 40
0.24
340
0
 40
0.24
300

 40
0.36
280
     3
 71
     2
340
22D
 90
       25
 71
     3
340
226
 40
0.24
 90
        1
 40
0.75
 90
        1
300
%<\AcVar ViewType \f "%tc1">% %<\AcVar ViewDetailId>%\PSCALE %<\AcVar ViewScale \f "%sn">%
 71
     4
340
22D
 90
       25
340
22D
 90
       25
280
     0
  0
LAYOUT
  5
243
102
{ACAD_XDICTIONARY
360
2B9
102
}
102
{ACAD_REACTORS
330
232
102
}
330
232
100
AcDbPlotSettings
  1

  2
Microsoft XPS Document Writer
  4

  6

 40
0.0
 41
0.0
 42
0.0
 43
0.0
 44
0.0
 45
0.0
 46
0.0
 47
0.0
 48
0.0
 49
0.0
140
0.0
141
0.0
142
1.0
143
1.0
 70
  1712
 72
     0
 73
     0
 74
     0
  7

 75
     0
147
1.0
148
0.0
149
0.0
100
AcDbLayout
  1
Model
 70
     1
 71
     0
 10
0.0
 20
0.0
 11
12.0
 21
9.0
 12
0.0
 22
0.0
 32
0.0
 14
0.0
 24
0.0
 34
0.0
 15
0.0
 25
0.0
 35
0.0
146
0.0
 13
0.0
 23
0.0
 33
0.0
 16
1.0
 26
0.0
 36
0.0
 17
0.0
 27
1.0
 37
0.0
 76
     0
330
240
331
245
  0
LAYOUT
  5
23F
102
{ACAD_XDICTIONARY
360
2B7
102
}
102
{ACAD_REACTORS
330
232
102
}
330
232
100
AcDbPlotSettings
  1

  2
Microsoft XPS Document Writer
  4

  6

 40
0.0
 41
0.0
 42
0.0
 43
0.0
 44
0.0
 45
0.0
 46
0.0
 47
0.0
 48
0.0
 49
0.0
140
0.0
141
0.0
142
1.0
143
1.0
 70
   688
 72
     0
 73
     0
 74
     5
  7

 75
    16
147
1.0
148
0.0
149
0.0
100
AcDbLayout
  1
レイアウト1
 70
     0
 71
     1
 10
0.0
 20
0.0
 11
12.0
 21
9.0
 12
0.0
 22
0.0
 32
0.0
 14
1.000000000000000E+20
 24
1.000000000000000E+20
 34
1.000000000000000E+20
 15
-1.000000000000000E+20
 25
-1.000000000000000E+20
 35
-1.000000000000000E+20
146
0.0
 13
0.0
 23
0.0
 33
0.0
 16
1.0
 26
0.0
 36
0.0
 17
0.0
 27
1.0
 37
0.0
 76
     0
330
23C
  0
MATERIAL
  5
1EA
102
{ACAD_XDICTIONARY
360
1EB
102
}
102
{ACAD_REACTORS
330
1E1
102
}
330
1E1
100
AcDbMaterial
  1
ByBlock
 72
     0
 43
0.0208333333333333
 43
0.0
 43
0.0
 43
0.0
 43
0.0
 43
0.0208333333333333
 43
0.0
 43
0.0
 43
0.0
 43
0.0
 43
1.0
 43
0.0
 43
0.0
 43
0.0
 43
0.0
 43
1.0
 77
     0
 47
0.0208333333333333
 47
0.0
 47
0.0
 47
0.0
 47
0.0
 47
0.0208333333333333
 47
0.0
 47
0.0
 47
0.0
 47
0.0
 47
1.0
 47
0.0
 47
0.0
 47
0.0
 47
0.0
 47
1.0
171
     0
 49
0.0208333333333333
 49
0.0
 49
0.0
 49
0.0
 49
0.0
 49
0.0208333333333333
 49
0.0
 49
0.0
 49
0.0
 49
0.0
 49
1.0
 49
0.0
 49
0.0
 49
0.0
 49
0.0
 49
1.0
175
     0
142
0.0208333333333333
142
0.0
142
0.0
142
0.0
142
0.0
142
0.0208333333333333
142
0.0
142
0.0
142
0.0
142
0.0
142
1.0
142
0.0
142
0.0
142
0.0
142
0.0
142
1.0
179
     0
144
0.0208333333333333
144
0.0
144
0.0
144
0.0
144
0.0
144
0.0208333333333333
144
0.0
144
0.0
144
0.0
144
0.0
144
1.0
144
0.0
144
0.0
144
0.0
144
0.0
144
1.0
147
0.0208333333333333
147
0.0
147
0.0
147
0.0
147
0.0
147
0.0208333333333333
147
0.0
147
0.0
147
0.0
147
0.0
147
1.0
147
0.0
147
0.0
147
0.0
147
0.0
147
1.0
  0
MATERIAL
  5
1E2
102
{ACAD_XDICTIONARY
360
1E3
102
}
102
{ACAD_REACTORS
330
1E1
102
}
330
1E1
100
AcDbMaterial
  1
ByLayer
 72
     0
 43
0.0208333333333333
 43
0.0
 43
0.0
 43
0.0
 43
0.0
 43
0.0208333333333333
 43
0.0
 43
0.0
 43
0.0
 43
0.0
 43
1.0
 43
0.0
 43
0.0
 43
0.0
 43
0.0
 43
1.0
 77
     0
 47
0.0208333333333333
 47
0.0
 47
0.0
 47
0.0
 47
0.0
 47
0.0208333333333333
 47
0.0
 47
0.0
 47
0.0
 47
0.0
 47
1.0
 47
0.0
 47
0.0
 47
0.0
 47
0.0
 47
1.0
171
     0
 49
0.0208333333333333
 49
0.0
 49
0.0
 49
0.0
 49
0.0
 49
0.0208333333333333
 49
0.0
 49
0.0
 49
0.0
 49
0.0
 49
1.0
 49
0.0
 49
0.0
 49
0.0
 49
0.0
 49
1.0
175
     0
142
0.0208333333333333
142
0.0
142
0.0
142
0.0
142
0.0
142
0.0208333333333333
142
0.0
142
0.0
142
0.0
142
0.0
142
1.0
142
0.0
142
0.0
142
0.0
142
0.0
142
1.0
179
     0
144
0.0208333333333333
144
0.0
144
0.0
144
0.0
144
0.0
144
0.0208333333333333
144
0.0
144
0.0
144
0.0
144
0.0
144
1.0
144
0.0
144
0.0
144
0.0
144
0.0
144
1.0
147
0.0208333333333333
147
0.0
147
0.0
147
0.0
147
0.0
147
0.0208333333333333
147
0.0
147
0.0
147
0.0
147
0.0
147
1.0
147
0.0
147
0.0
147
0.0
147
0.0
147
1.0
  0
MATERIAL
  5
1F2
102
{ACAD_XDICTIONARY
360
1F3
102
}
102
{ACAD_REACTORS
330
1E1
102
}
330
1E1
100
AcDbMaterial
  1
Global
 72
     0
 43
0.0208333333333333
 43
0.0
 43
0.0
 43
0.0
 43
0.0
 43
0.0208333333333333
 43
0.0
 43
0.0
 43
0.0
 43
0.0
 43
1.0
 43
0.0
 43
0.0
 43
0.0
 43
0.0
 43
1.0
 77
     0
 47
0.0208333333333333
 47
0.0
 47
0.0
 47
0.0
 47
0.0
 47
0.0208333333333333
 47
0.0
 47
0.0
 47
0.0
 47
0.0
 47
1.0
 47
0.0
 47
0.0
 47
0.0
 47
0.0
 47
1.0
171
     0
 49
0.0208333333333333
 49
0.0
 49
0.0
 49
0.0
 49
0.0
 49
0.0208333333333333
 49
0.0
 49
0.0
 49
0.0
 49
0.0
 49
1.0
 49
0.0
 49
0.0
 49
0.0
 49
0.0
 49
1.0
175
     0
142
0.0208333333333333
142
0.0
142
0.0
142
0.0
142
0.0
142
0.0208333333333333
142
0.0
142
0.0
142
0.0
142
0.0
142
1.0
142
0.0
142
0.0
142
0.0
142
0.0
142
1.0
179
     0
144
0.0208333333333333
144
0.0
144
0.0
144
0.0
144
0.0
144
0.0208333333333333
144
0.0
144
0.0
144
0.0
144
0.0
144
1.0
144
0.0
144
0.0
144
0.0
144
0.0
144
1.0
147
0.0208333333333333
147
0.0
147
0.0
147
0.0
147
0.0
147
0.0208333333333333
147
0.0
147
0.0
147
0.0
147
0.0
147
1.0
147
0.0
147
0.0
147
0.0
147
0.0
147
1.0
  0
MLEADERSTYLE
  5
237
102
{ACAD_REACTORS
330
236
102
}
330
236
100
AcDbMLeaderStyle
170
     2
171
     1
172
     0
 90
        2
 40
0.0
 41
0.0
173
     1
 91
-1056964608
340
22B
 92
       -2
290
     1
 42
0.09
291
     1
 43
0.36
  3
Standard
 44
0.18
300

342
226
174
     1
178
     6
175
     1
176
     0
 93
-1056964608
 45
0.18
292
     0
297
     0
 46
0.18
 94
-1056964608
 47
1.0
 49
1.0
140
1.0
293
     1
141
0.0
294
     1
177
     0
142
1.0
295
     0
296
     0
143
0.125
1001
ACAD_MLEADERVER
1070
     2
  0
MLINESTYLE
  5
230
102
{ACAD_REACTORS
330
22F
102
}
330
22F
100
AcDbMlineStyle
  2
STANDARD
 70
     0
  3

 62
   256
 51
90.0
 52
90.0
 71
     2
 49
0.5
 62
   256
  6
BYLAYER
 49
-0.5
 62
   256
  6
BYLAYER
  0
ACDBPLACEHOLDER
  5
1E0
102
{ACAD_REACTORS
330
1DF
102
}
330
1DF
  0
SCALE
  5
214
102
{ACAD_REACTORS
330
213
102
}
330
213
100
AcDbScale
 70
     0
300
1:1
140
1.0
141
1.0
290
     1
  0
SCALE
  5
215
102
{ACAD_REACTORS
330
213
102
}
330
213
100
AcDbScale
 70
     0
300
1/128" = 1'-0"
140
0.0078125
141
12.0
290
     0
  0
SCALE
  5
216
102
{ACAD_REACTORS
330
213
102
}
330
213
100
AcDbScale
 70
     0
300
1/64" = 1'-0"
140
0.015625
141
12.0
290
     0
  0
SCALE
  5
217
102
{ACAD_REACTORS
330
213
102
}
330
213
100
AcDbScale
 70
     0
300
1/32" = 1'-0"
140
0.03125
141
12.0
290
     0
  0
SCALE
  5
218
102
{ACAD_REACTORS
330
213
102
}
330
213
100
AcDbScale
 70
     0
300
1/16" = 1'-0"
140
0.0625
141
12.0
290
     0
  0
SCALE
  5
219
102
{ACAD_REACTORS
330
213
102
}
330
213
100
AcDbScale
 70
     0
300
3/32" = 1'-0"
140
0.09375
141
12.0
290
     0
  0
SCALE
  5
21A
102
{ACAD_REACTORS
330
213
102
}
330
213
100
AcDbScale
 70
     0
300
1/8" = 1'-0"
140
0.125
141
12.0
290
     0
  0
SCALE
  5
21B
102
{ACAD_REACTORS
330
213
102
}
330
213
100
AcDbScale
 70
     0
300
3/16" = 1'-0"
140
0.1875
141
12.0
290
     0
  0
SCALE
  5
21C
102
{ACAD_REACTORS
330
213
102
}
330
213
100
AcDbScale
 70
     0
300
1/4" = 1'-0"
140
0.25
141
12.0
290
     0
  0
SCALE
  5
21D
102
{ACAD_REACTORS
330
213
102
}
330
213
100
AcDbScale
 70
     0
300
3/8" = 1'-0"
140
0.375
141
12.0
290
     0
  0
SCALE
  5
21E
102
{ACAD_REACTORS
330
213
102
}
330
213
100
AcDbScale
 70
     0
300
1/2" = 1'-0"
140
0.5
141
12.0
290
     0
  0
SCALE
  5
21F
102
{ACAD_REACTORS
330
213
102
}
330
213
100
AcDbScale
 70
     0
300
3/4" = 1'-0"
140
0.75
141
12.0
290
     0
  0
SCALE
  5
220
102
{ACAD_REACTORS
330
213
102
}
330
213
100
AcDbScale
 70
     0
300
1" = 1'-0"
140
1.0
141
12.0
290
     0
  0
SCALE
  5
221
102
{ACAD_REACTORS
330
213
102
}
330
213
100
AcDbScale
 70
     0
300
1-1/2" = 1'-0"
140
1.5
141
12.0
290
     0
  0
SCALE
  5
222
102
{ACAD_REACTORS
330
213
102
}
330
213
100
AcDbScale
 70
     0
300
3" = 1'-0"
140
3.0
141
12.0
290
     0
  0
SCALE
  5
223
102
{ACAD_REACTORS
330
213
102
}
330
213
100
AcDbScale
 70
     0
300
6" = 1'-0"
140
6.0
141
12.0
290
     0
  0
SCALE
  5
224
102
{ACAD_REACTORS
330
213
102
}
330
213
100
AcDbScale
 70
     0
300
1'-0" = 1'-0"
140
12.0
141
12.0
290
     0
  0
ACDBSECTIONVIEWSTYLE
  5
239
102
{ACAD_XDICTIONARY
360
2B3
102
}
102
{ACAD_REACTORS
330
238
102
}
330
238
100
AcDbModelDocViewStyle
 70
     0
  3
Imperial24
290
     0
100
AcDbSectionViewStyle
 70
     0
 71
     0
 90
       78
 71
     1
340
226
 40
0.24
340
0
340
0
 40
0.24
300
I, O, Q, S, X, Z
 40
0.48
 90
        3
 40
0.18
 90
        1
 71
     2
340
22D
 90
       25
340
22D
 90
       50
 40
0.24
 40
0.0
 40
0.24
 71
     3
340
226
 40
0.24
 90
        1
 40
0.75
 90
        1
300
%<\AcVar ViewType \f "%tc1">% %<\AcVar ViewSectionStartId>%-%<\AcVar ViewSectionEndId>%\PSCALE %<\AcVar ViewScale \f "%sn">%
 71
     4
300
ANSI31
 40
1.0
 90
        0
290
     0
290
     0
 90
        6
 40
0.0
 40
1.570796326794896
 40
0.2617993877991494
 40
1.308996938995747
 40
-0.2617993877991494
 40
1.832595714594046
  0
TABLESTYLE
  5
235
102
{ACAD_XDICTIONARY
360
27A
102
}
102
{ACAD_REACTORS
330
234
102
}
330
234
100
AcDbTableStyle
  3
Standard
 70
     0
 71
     0
 40
0.06
 41
0.06
280
     0
281
     0
  7
STANDARD
140
0.18
170
     2
 62
     0
 63
     7
283
     0
274
    -2
284
     1
 64
     0
275
    -2
285
     1
 65
     0
276
    -2
286
     1
 66
     0
277
    -2
287
     1
 67
     0
278
    -2
288
     1
 68
     0
279
    -2
289
     1
 69
     0
  7
STANDARD
140
0.25
170
     5
 62
     0
 63
     7
283
     0
274
    -2
284
     1
 64
     0
275
    -2
285
     1
 65
     0
276
    -2
286
     1
 66
     0
277
    -2
287
     1
 67
     0
278
    -2
288
     1
 68
     0
279
    -2
289
     1
 69
     0
  7
STANDARD
140
0.18
170
     5
 62
     0
 63
     7
283
     0
274
    -2
284
     1
 64
     0
275
    -2
285
     1
 65
     0
276
    -2
286
     1
 66
     0
277
    -2
287
     1
 67
     0
278
    -2
288
     1
 68
     0
279
    -2
289
     1
 69
     0
  0
VISUALSTYLE
  5
200
102
{ACAD_XDICTIONARY
360
28B
102
}
102
{ACAD_REACTORS
330
1FA
102
}
330
1FA
100
AcDbVisualStyle
  2
2dWireframe
 70
     4
 71
     0
 72
     2
 73
     0
 90
        0
 40
-0.6
 41
-30.0
 62
     5
 63
     7
 74
     1
 91
        4
 64
     7
 65
   257
 75
     1
175
     1
 42
1.0
 92
        0
 66
   257
 43
1.0
 76
     1
 77
     6
 78
     2
 67
     7
 79
     5
170
     0
171
     0
290
     0
174
     0
 93
        1
 44
0.0
173
     0
291
     0
 45
0.0
1001
ACAD
1000
AcDbSavedByObjectVersion
1070
     0
  0
VISUALSTYLE
  5
1FF
102
{ACAD_XDICTIONARY
360
289
102
}
102
{ACAD_REACTORS
330
1FA
102
}
330
1FA
100
AcDbVisualStyle
  2
Basic
 70
     7
 71
     1
 72
     0
 73
     1
 90
        0
 40
-0.6
 41
-30.0
 62
     5
 63
     7
 74
     0
 91
        4
 64
     7
 65
   257
 75
     1
175
     1
 42
1.0
 92
        8
 66
     7
 43
1.0
 76
     1
 77
     6
 78
     2
 67
     7
 79
     5
170
     0
171
     0
290
     0
174
     0
 93
        1
 44
0.0
173
     0
291
     1
 45
0.0
1001
ACAD
1000
AcDbSavedByObjectVersion
1070
     0
  0
VISUALSTYLE
  5
206
102
{ACAD_XDICTIONARY
360
297
102
}
102
{ACAD_REACTORS
330
1FA
102
}
330
1FA
100
AcDbVisualStyle
  2
Brighten
 70
    12
 71
     2
 72
     2
 73
     0
 90
        0
 40
-0.6
 41
-30.0
 62
     5
 63
     7
 74
     1
 91
        4
 64
     7
 65
   257
 75
     1
175
     1
 42
1.0
 92
        8
 66
     7
 43
1.0
 76
     1
 77
     6
 78
     2
 67
     7
 79
     5
170
     0
171
     0
290
     0
174
     0
 93
        1
 44
50.0
173
     0
291
     1
 45
0.0
1001
ACAD
1000
AcDbSavedByObjectVersion
1070
     0
  0
VISUALSTYLE
  5
20A
102
{ACAD_XDICTIONARY
360
29F
102
}
102
{ACAD_REACTORS
330
1FA
102
}
330
1FA
100
AcDbVisualStyle
  2
ColorChange
 70
    16
 71
     2
 72
     2
 73
     3
 90
        0
 40
-0.6
 41
-30.0
 62
     5
 63
     8
 74
     1
 91
        4
 64
     7
 65
   257
 75
     1
175
     1
 42
1.0
 92
        8
 66
     8
 43
1.0
 76
     1
 77
     6
 78
     2
 67
     7
 79
     5
170
     0
171
     0
290
     0
174
     0
 93
        1
 44
0.0
173
     0
291
     1
 45
0.0
1001
ACAD
1000
AcDbSavedByObjectVersion
1070
     0
  0
VISUALSTYLE
  5
203
102
{ACAD_XDICTIONARY
360
291
102
}
102
{ACAD_REACTORS
330
1FA
102
}
330
1FA
100
AcDbVisualStyle
  2
Conceptual
 70
     9
 71
     3
 72
     2
 73
     0
 90
        0
 40
-0.6
 41
-30.0
 62
     5
 63
     7
 74
     2
 91
        2
 64
     7
 65
   257
 75
     1
175
     1
 42
179.0
 92
        8
 66
     7
 43
1.0
 76
     1
 77
     6
 78
     2
 67
     7
 79
     3
170
     0
171
     0
290
     0
174
     0
 93
        1
 44
0.0
173
     0
291
     0
 45
0.0
1001
ACAD
1000
AcDbSavedByObjectVersion
1070
     0
  0
VISUALSTYLE
  5
205
102
{ACAD_XDICTIONARY
360
295
102
}
102
{ACAD_REACTORS
330
1FA
102
}
330
1FA
100
AcDbVisualStyle
  2
Dim
 70
    11
 71
     2
 72
     2
 73
     0
 90
        0
 40
-0.6
 41
-30.0
 62
     5
 63
     7
 74
     1
 91
        4
 64
     7
 65
   257
 75
     1
175
     1
 42
1.0
 92
        8
 66
     7
 43
1.0
 76
     1
 77
     6
 78
     2
 67
     7
 79
     5
170
     0
171
     0
290
     0
174
     0
 93
        1
 44
-50.0
173
     0
291
     1
 45
0.0
1001
ACAD
1000
AcDbSavedByObjectVersion
1070
     0
  0
VISUALSTYLE
  5
212
102
{ACAD_XDICTIONARY
360
2AF
102
}
102
{ACAD_REACTORS
330
1FA
102
}
330
1FA
100
AcDbVisualStyle
  2
EdgeColorOff
 70
    22
 71
     2
 72
     2
 73
     0
 90
        0
 40
-0.6
 41
-30.0
 62
     5
 63
     7
 74
     1
 91
        4
 64
     7
 65
   257
 75
     1
175
     1
 42
1.0
 92
        8
 66
     7
 43
1.0
 76
     1
 77
     6
 78
     2
 67
     7
 79
     5
170
     0
171
     0
290
     0
174
     0
 93
        1
 44
0.0
173
     0
291
     1
 45
0.0
1001
ACAD
1000
AcDbSavedByObjectVersion
1070
     0
  0
VISUALSTYLE
  5
209
102
{ACAD_XDICTIONARY
360
29D
102
}
102
{ACAD_REACTORS
330
1FA
102
}
330
1FA
100
AcDbVisualStyle
  2
Facepattern
 70
    15
 71
     2
 72
     2
 73
     0
 90
        0
 40
-0.6
 41
-30.0
 62
     5
 63
     7
 74
     1
 91
        4
 64
     7
 65
   257
 75
     1
175
     1
 42
1.0
 92
        8
 66
     7
 43
1.0
 76
     1
 77
     6
 78
     2
 67
     7
 79
     5
170
     0
171
     0
290
     0
174
     0
 93
        1
 44
0.0
173
     0
291
     1
 45
0.0
1001
ACAD
1000
AcDbSavedByObjectVersion
1070
     0
  0
VISUALSTYLE
  5
1FB
102
{ACAD_XDICTIONARY
360
281
102
}
102
{ACAD_REACTORS
330
1FA
102
}
330
1FA
100
AcDbVisualStyle
  2
Flat
 70
     0
 71
     2
 72
     1
 73
     1
 90
        2
 40
-0.6
 41
30.0
 62
     5
 63
     7
 74
     0
 91
        0
 64
     7
 65
   257
 75
     1
175
     1
 42
1.0
 92
        8
 66
     7
 43
1.0
 76
     1
 77
     6
 78
     2
 67
     7
 79
     5
170
     0
171
     0
290
     0
174
     0
 93
       13
 44
0.0
173
     0
291
     1
 45
0.0
1001
ACAD
1000
AcDbSavedByObjectVersion
1070
     0
  0
VISUALSTYLE
  5
1FC
102
{ACAD_XDICTIONARY
360
283
102
}
102
{ACAD_REACTORS
330
1FA
102
}
330
1FA
100
AcDbVisualStyle
  2
FlatWithEdges
 70
     1
 71
     2
 72
     1
 73
     1
 90
        2
 40
-0.6
 41
30.0
 62
     5
 63
     7
 74
     1
 91
        0
 64
     7
 65
   257
 75
     1
175
     1
 42
1.0
 92
        0
 66
   257
 43
1.0
 76
     1
 77
     6
 78
     2
 67
     7
 79
     5
170
     0
171
     0
290
     0
174
     0
 93
       13
 44
0.0
173
     0
291
     1
 45
0.0
1001
ACAD
1000
AcDbSavedByObjectVersion
1070
     0
  0
VISUALSTYLE
  5
1FD
102
{ACAD_XDICTIONARY
360
285
102
}
102
{ACAD_REACTORS
330
1FA
102
}
330
1FA
100
AcDbVisualStyle
  2
Gouraud
 70
     2
 71
     2
 72
     2
 73
     1
 90
        2
 40
-0.6
 41
30.0
 62
     5
 63
     7
 74
     0
 91
        0
 64
     7
 65
   257
 75
     1
175
     1
 42
1.0
 92
        0
 66
     7
 43
1.0
 76
     1
 77
     6
 78
     2
 67
     7
 79
     5
170
     0
171
     0
290
     0
174
     0
 93
       13
 44
0.0
173
     0
291
     1
 45
0.0
1001
ACAD
1000
AcDbSavedByObjectVersion
1070
     0
  0
VISUALSTYLE
  5
1FE
102
{ACAD_XDICTIONARY
360
287
102
}
102
{ACAD_REACTORS
330
1FA
102
}
330
1FA
100
AcDbVisualStyle
  2
GouraudWithEdges
 70
     3
 71
     2
 72
     2
 73
     1
 90
        2
 40
-0.6
 41
30.0
 62
     5
 63
     7
 74
     1
 91
        0
 64
     7
 65
   257
 75
     1
175
     1
 42
1.0
 92
        0
 66
   257
 43
1.0
 76
     1
 77
     6
 78
     2
 67
     7
 79
     5
170
     0
171
     0
290
     0
174
     0
 93
       13
 44
0.0
173
     0
291
     1
 45
0.0
1001
ACAD
1000
AcDbSavedByObjectVersion
1070
     0
  0
VISUALSTYLE
  5
202
102
{ACAD_XDICTIONARY
360
28F
102
}
102
{ACAD_REACTORS
330
1FA
102
}
330
1FA
100
AcDbVisualStyle
  2
Hidden
 70
     6
 71
     1
 72
     2
 73
     2
 90
        0
 40
-0.6
 41
-30.0
 62
     5
 63
     7
 74
     2
 91
        2
 64
     7
 65
   257
 75
     2
175
     1
 42
40.0
 92
        0
 66
   257
 43
1.0
 76
     1
 77
     6
 78
     2
 67
     7
 79
     3
170
     0
171
     0
290
     0
174
     0
 93
        1
 44
0.0
173
     0
291
     0
 45
0.0
1001
ACAD
1000
AcDbSavedByObjectVersion
1070
     0
  0
VISUALSTYLE
  5
210
102
{ACAD_XDICTIONARY
360
2AB
102
}
102
{ACAD_REACTORS
330
1FA
102
}
330
1FA
100
AcDbVisualStyle
  2
JitterOff
 70
    20
 71
     2
 72
     2
 73
     0
 90
        0
 40
-0.6
 41
-30.0
 62
     5
 63
     7
 74
     1
 91
        4
 64
     7
 65
   257
 75
     1
175
     1
 42
1.0
 92
       10
 66
     7
 43
1.0
 76
     1
 77
     6
 78
     2
 67
     7
 79
     5
170
     0
171
     0
290
     0
174
     0
 93
        1
 44
0.0
173
     0
291
     1
 45
0.0
1001
ACAD
1000
AcDbSavedByObjectVersion
1070
     0
  0
VISUALSTYLE
  5
208
102
{ACAD_XDICTIONARY
360
29B
102
}
102
{ACAD_REACTORS
330
1FA
102
}
330
1FA
100
AcDbVisualStyle
  2
Linepattern
 70
    14
 71
     2
 72
     2
 73
     0
 90
        0
 40
-0.6
 41
-30.0
 62
     5
 63
     7
 74
     1
 91
        4
 64
     7
 65
   257
 75
     7
175
     7
 42
1.0
 92
        8
 66
     7
 43
1.0
 76
     1
 77
     6
 78
     2
 67
     7
 79
     5
170
     0
171
     0
290
     0
174
     0
 93
        1
 44
0.0
173
     0
291
     1
 45
0.0
1001
ACAD
1000
AcDbSavedByObjectVersion
1070
     0
  0
VISUALSTYLE
  5
211
102
{ACAD_XDICTIONARY
360
2AD
102
}
102
{ACAD_REACTORS
330
1FA
102
}
330
1FA
100
AcDbVisualStyle
  2
OverhangOff
 70
    21
 71
     2
 72
     2
 73
     0
 90
        0
 40
-0.6
 41
-30.0
 62
     5
 63
     7
 74
     1
 91
        4
 64
     7
 65
   257
 75
     1
175
     1
 42
1.0
 92
        9
 66
     7
 43
1.0
 76
     1
 77
     6
 78
     2
 67
     7
 79
     5
170
     0
171
     0
290
     0
174
     0
 93
        1
 44
0.0
173
     0
291
     1
 45
0.0
1001
ACAD
1000
AcDbSavedByObjectVersion
1070
     0
  0
VISUALSTYLE
  5
204
102
{ACAD_XDICTIONARY
360
293
102
}
102
{ACAD_REACTORS
330
1FA
102
}
330
1FA
100
AcDbVisualStyle
  2
Realistic
 70
     8
 71
     2
 72
     3
 73
     0
 90
        2
 40
-0.6
 41
30.0
 62
     5
 63
     7
 74
     0
 91
        0
 64
     7
 65
   257
 75
     1
175
     1
 42
1.0
 92
        8
 66
   257
 43
1.0
 76
     1
 77
     6
 78
     2
 67
     7
 79
     3
170
     0
171
     0
290
     0
174
     0
 93
       13
 44
0.0
173
     0
291
     0
 45
0.0
1001
ACAD
1000
AcDbSavedByObjectVersion
1070
     0
  0
VISUALSTYLE
  5
20F
102
{ACAD_XDICTIONARY
360
2A9
102
}
102
{ACAD_REACTORS
330
1FA
102
}
330
1FA
100
AcDbVisualStyle
  2
Shaded
 70
    27
 71
     2
 72
     2
 73
     1
 90
        2
 40
-0.6
 41
30.0
 62
     5
 63
     7
 74
     0
 91
        4
 64
     7
 65
   257
 75
     1
175
     1
 42
1.0
 92
        8
 66
   257
 43
1.0
 76
     1
 77
     6
 78
     2
 67
     8
 79
     3
170
     0
171
     0
290
     0
174
     0
 93
        5
 44
0.0
173
     0
291
     0
 45
0.0
1001
ACAD
1000
AcDbSavedByObjectVersion
1070
     0
  0
VISUALSTYLE
  5
20E
102
{ACAD_XDICTIONARY
360
2A7
102
}
102
{ACAD_REACTORS
330
1FA
102
}
330
1FA
100
AcDbVisualStyle
  2
Shaded with edges
 70
    26
 71
     2
 72
     2
 73
     1
 90
        2
 40
-0.6
 41
30.0
 62
     5
 63
     7
 74
     1
 91
       10
 64
     7
 65
   257
 75
     2
175
     1
 42
1.0
 92
        8
 66
   257
 43
1.0
 76
     1
 77
     6
 78
     2
 67
     7
 79
     3
170
     0
171
     0
290
     0
174
     0
 93
        5
 44
0.0
173
     0
291
     0
 45
0.0
1001
ACAD
1000
AcDbSavedByObjectVersion
1070
     0
  0
VISUALSTYLE
  5
20B
102
{ACAD_XDICTIONARY
360
2A1
102
}
102
{ACAD_REACTORS
330
1FA
102
}
330
1FA
100
AcDbVisualStyle
  2
Shades of Gray
 70
    23
 71
     2
 72
     2
 73
     3
 90
        0
 40
-0.6
 41
-30.0
 62
     5
 63
     7
 74
     2
 91
        2
 64
     7
 65
     7
 75
     1
175
     1
 42
40.0
 92
        8
 66
     7
 43
1.0
 76
     1
 77
     6
 78
     2
 67
     7
 79
     3
170
     0
171
     0
290
     0
174
     0
 93
        1
 44
0.0
173
     0
291
     0
 45
0.0
1001
ACAD
1000
AcDbSavedByObjectVersion
1070
     0
  0
VISUALSTYLE
  5
20C
102
{ACAD_XDICTIONARY
360
2A3
102
}
102
{ACAD_REACTORS
330
1FA
102
}
330
1FA
100
AcDbVisualStyle
  2
Sketchy
 70
    24
 71
     1
 72
     2
 73
     2
 90
        0
 40
-0.6
 41
-30.0
 62
     5
 63
     7
 74
     2
 91
        2
 64
     7
 65
     7
 75
     1
175
     1
 42
40.0
 92
       11
 66
     7
 43
1.0
 76
     1
 77
     6
 78
     2
 67
     7
 79
     6
170
     0
171
     0
290
     0
174
     0
 93
        1
 44
0.0
173
     0
291
     0
 45
0.0
1001
ACAD
1000
AcDbSavedByObjectVersion
1070
     0
  0
VISUALSTYLE
  5
207
102
{ACAD_XDICTIONARY
360
299
102
}
102
{ACAD_REACTORS
330
1FA
102
}
330
1FA
100
AcDbVisualStyle
  2
Thicken
 70
    13
 71
     2
 72
     2
 73
     0
 90
        0
 40
-0.6
 41
-30.0
 62
     5
 63
     7
 74
     1
 91
        4
 64
     7
 65
   257
 75
     1
175
     1
 42
1.0
 92
       12
 66
     7
 43
1.0
 76
     1
 77
     6
 78
     2
 67
     7
 79
     5
170
     0
171
     0
290
     0
174
     0
 93
        1
 44
0.0
173
     0
291
     1
 45
0.0
1001
ACAD
1000
AcDbSavedByObjectVersion
1070
     0
  0
VISUALSTYLE
  5
201
102
{ACAD_XDICTIONARY
360
28D
102
}
102
{ACAD_REACTORS
330
1FA
102
}
330
1FA
100
AcDbVisualStyle
  2
Wireframe
 70
     5
 71
     0
 72
     2
 73
     0
 90
        0
 40
-0.6
 41
-30.0
 62
     5
 63
     7
 74
     1
 91
        4
 64
     7
 65
   257
 75
     1
175
     1
 42
1.0
 92
        0
 66
   257
 43
1.0
 76
     1
 77
     6
 78
     2
 67
     7
 79
     3
170
     0
171
     0
290
     0
174
     0
 93
        1
 44
0.0
173
     0
291
     0
 45
0.0
1001
ACAD
1000
AcDbSavedByObjectVersion
1070
     0
  0
VISUALSTYLE
  5
20D
102
{ACAD_XDICTIONARY
360
2A5
102
}
102
{ACAD_REACTORS
330
1FA
102
}
330
1FA
100
AcDbVisualStyle
  2
X-Ray
 70
    25
 71
     2
 72
     2
 73
     1
 90
        1
 40
0.5
 41
-30.0
 62
     5
 63
     7
 74
     1
 91
        0
 64
     7
 65
   257
 75
     1
175
     1
 42
1.0
 92
        8
 66
     7
 43
1.0
 76
     1
 77
     6
 78
     2
 67
     7
 79
     3
170
     0
171
     0
290
     0
174
     0
 93
       13
 44
0.0
173
     0
291
     0
 45
0.0
1001
ACAD
1000
AcDbSavedByObjectVersion
1070
     0
  0
DICTIONARYVAR
  5
274
102
{ACAD_REACTORS
330
26F
102
}
330
26F
100
DictionaryVariables
280
     0
  1
1:1
  0
DICTIONARYVAR
  5
271
102
{ACAD_REACTORS
330
26F
102
}
330
26F
100
DictionaryVariables
280
     0
  1
STANDARD
  0
DICTIONARYVAR
  5
270
102
{ACAD_REACTORS
330
26F
102
}
330
26F
100
DictionaryVariables
280
     0
  1
STANDARD
  0
DICTIONARYVAR
  5
272
102
{ACAD_REACTORS
330
26F
102
}
330
26F
100
DictionaryVariables
280
     0
  1
Imperial24
  0
DICTIONARYVAR
  5
273
102
{ACAD_REACTORS
330
26F
102
}
330
26F
100
DictionaryVariables
280
     0
  1
Imperial24
  0
DICTIONARYVAR
  5
277
102
{ACAD_REACTORS
330
26F
102
}
330
26F
100
DictionaryVariables
280
     0
  1
1
  0
DICTIONARYVAR
  5
276
102
{ACAD_REACTORS
330
26F
102
}
330
26F
100
DictionaryVariables
280
     0
  1
0
  0
DICTIONARYVAR
  5
275
102
{ACAD_REACTORS
330
26F
102
}
330
26F
100
DictionaryVariables
280
     0
  1
127
  0
DICTIONARYVAR
  5
278
102
{ACAD_REACTORS
330
26F
102
}
330
26F
100
DictionaryVariables
280
     0
  1
2
  0
DICTIONARY
  5
2B5
330
23B
100
AcDbDictionary
280
     1
281
     1
  3
ACAD_XREC_ROUNDTRIP
360
2B6
  0
DICTIONARY
  5
2B9
330
243
100
AcDbDictionary
280
     1
281
     1
  3
ACAD_XREC_ROUNDTRIP
360
2BA
  0
DICTIONARY
  5
2B7
330
23F
100
AcDbDictionary
280
     1
281
     1
  3
ACAD_XREC_ROUNDTRIP
360
2B8
  0
DICTIONARY
  5
1EB
330
1EA
100
AcDbDictionary
280
     1
281
     1
  3
ACAD_XREC_ROUNDTRIP
360
27F
  3
BUMPTILE
360
1ED
  3
DIFFUSETILE
360
1EC
  3
OPACITYTILE
360
1F0
  3
REFLECTIONTILE
360
1EF
  3
REFRACTIONTILE
360
1F1
  3
SPECULARTILE
360
1EE
  0
DICTIONARY
  5
1E3
330
1E2
100
AcDbDictionary
280
     1
281
     1
  3
ACAD_XREC_ROUNDTRIP
360
27E
  3
BUMPTILE
360
1E5
  3
DIFFUSETILE
360
1E4
  3
OPACITYTILE
360
1E8
  3
REFLECTIONTILE
360
1E7
  3
REFRACTIONTILE
360
1E9
  3
SPECULARTILE
360
1E6
  0
DICTIONARY
  5
1F3
330
1F2
100
AcDbDictionary
280
     1
281
     1
  3
ACAD_XREC_ROUNDTRIP
360
280
  3
BUMPTILE
360
1F5
  3
DIFFUSETILE
360
1F4
  3
OPACITYTILE
360
1F8
  3
REFLECTIONTILE
360
1F7
  3
REFRACTIONTILE
360
1F9
  3
SPECULARTILE
360
1F6
  0
DICTIONARY
  5
2B3
330
239
100
AcDbDictionary
280
     1
281
     1
  3
ACAD_XREC_ROUNDTRIP
360
2B4
  0
DICTIONARY
  5
27A
330
235
100
AcDbDictionary
280
     1
281
     1
  3
ACAD_ROUNDTRIP_2008_TABLESTYLE_CELLSTYLEMAP
360
27B
  3
ACAD_XREC_ROUNDTRIP
360
2B1
  0
DICTIONARY
  5
28B
330
200
100
AcDbDictionary
280
     1
281
     1
  3
ACAD_XREC_ROUNDTRIP
360
28C
  0
DICTIONARY
  5
289
330
1FF
100
AcDbDictionary
280
     1
281
     1
  3
ACAD_XREC_ROUNDTRIP
360
28A
  0
DICTIONARY
  5
297
330
206
100
AcDbDictionary
280
     1
281
     1
  3
ACAD_XREC_ROUNDTRIP
360
298
  0
DICTIONARY
  5
29F
330
20A
100
AcDbDictionary
280
     1
281
     1
  3
ACAD_XREC_ROUNDTRIP
360
2A0
  0
DICTIONARY
  5
291
330
203
100
AcDbDictionary
280
     1
281
     1
  3
ACAD_XREC_ROUNDTRIP
360
292
  0
DICTIONARY
  5
295
330
205
100
AcDbDictionary
280
     1
281
     1
  3
ACAD_XREC_ROUNDTRIP
360
296
  0
DICTIONARY
  5
2AF
330
212
100
AcDbDictionary
280
     1
281
     1
  3
ACAD_XREC_ROUNDTRIP
360
2B0
  0
DICTIONARY
  5
29D
330
209
100
AcDbDictionary
280
     1
281
     1
  3
ACAD_XREC_ROUNDTRIP
360
29E
  0
DICTIONARY
  5
281
330
1FB
100
AcDbDictionary
280
     1
281
     1
  3
ACAD_XREC_ROUNDTRIP
360
282
  0
DICTIONARY
  5
283
330
1FC
100
AcDbDictionary
280
     1
281
     1
  3
ACAD_XREC_ROUNDTRIP
360
284
  0
DICTIONARY
  5
285
330
1FD
100
AcDbDictionary
280
     1
281
     1
  3
ACAD_XREC_ROUNDTRIP
360
286
  0
DICTIONARY
  5
287
330
1FE
100
AcDbDictionary
280
     1
281
     1
  3
ACAD_XREC_ROUNDTRIP
360
288
  0
DICTIONARY
  5
28F
330
202
100
AcDbDictionary
280
     1
281
     1
  3
ACAD_XREC_ROUNDTRIP
360
290
  0
DICTIONARY
  5
2AB
330
210
100
AcDbDictionary
280
     1
281
     1
  3
ACAD_XREC_ROUNDTRIP
360
2AC
  0
DICTIONARY
  5
29B
330
208
100
AcDbDictionary
280
     1
281
     1
  3
ACAD_XREC_ROUNDTRIP
360
29C
  0
DICTIONARY
  5
2AD
330
211
100
AcDbDictionary
280
     1
281
     1
  3
ACAD_XREC_ROUNDTRIP
360
2AE
  0
DICTIONARY
  5
293
330
204
100
AcDbDictionary
280
     1
281
     1
  3
ACAD_XREC_ROUNDTRIP
360
294
  0
DICTIONARY
  5
2A9
330
20F
100
AcDbDictionary
280
     1
281
     1
  3
ACAD_XREC_ROUNDTRIP
360
2AA
  0
DICTIONARY
  5
2A7
330
20E
100
AcDbDictionary
280
     1
281
     1
  3
ACAD_XREC_ROUNDTRIP
360
2A8
  0
DICTIONARY
  5
2A1
330
20B
100
AcDbDictionary
280
     1
281
     1
  3
ACAD_XREC_ROUNDTRIP
360
2A2
  0
DICTIONARY
  5
2A3
330
20C
100
AcDbDictionary
280
     1
281
     1
  3
ACAD_XREC_ROUNDTRIP
360
2A4
  0
DICTIONARY
  5
299
330
207
100
AcDbDictionary
280
     1
281
     1
  3
ACAD_XREC_ROUNDTRIP
360
29A
  0
DICTIONARY
  5
28D
330
201
100
AcDbDictionary
280
     1
281
     1
  3
ACAD_XREC_ROUNDTRIP
360
28E
  0
DICTIONARY
  5
2A5
330
20D
100
AcDbDictionary
280
     1
281
     1
  3
ACAD_XREC_ROUNDTRIP
360
2A6
  0
XRECORD
  5
2B6
102
{ACAD_REACTORS
330
2B5
102
}
330
2B5
100
AcDbXrecord
280
     1
102
DISPLAYNAME
  1
Imperial24
102
FLAGS
 90
        0
  0
XRECORD
  5
2BA
102
{ACAD_REACTORS
330
2B9
102
}
330
2B9
100
AcDbXrecord
280
     1
102
SHADEPLOT
 70
     0
102
SHADEPLOTRESLEVEL
 70
     2
102
SHADEPLOTCUSTOMDPI
 70
   300
  0
XRECORD
  5
2B8
102
{ACAD_REACTORS
330
2B7
102
}
330
2B7
100
AcDbXrecord
280
     1
102
SHADEPLOT
 70
     0
102
SHADEPLOTRESLEVEL
 70
     2
102
SHADEPLOTCUSTOMDPI
 70
   300
  0
XRECORD
  5
27F
102
{ACAD_REACTORS
330
1EB
102
}
330
1EB
100
AcDbXrecord
280
     1
102
MATERIAL
148
0.0
149
0.0
149
0.0
 93
        0
 94
      127
282
     0
 72
     0
 77
     0
171
     0
175
     0
179
     0
273
     0
  0
XRECORD
  5
1ED
102
{ACAD_REACTORS
330
1EB
102
}
330
1EB
100
AcDbXrecord
280
     1
270
     1
271
     1
  0
XRECORD
  5
1EC
102
{ACAD_REACTORS
330
1EB
102
}
330
1EB
100
AcDbXrecord
280
     1
270
     1
271
     1
  0
XRECORD
  5
1F0
102
{ACAD_REACTORS
330
1EB
102
}
330
1EB
100
AcDbXrecord
280
     1
270
     1
271
     1
  0
XRECORD
  5
1EF
102
{ACAD_REACTORS
330
1EB
102
}
330
1EB
100
AcDbXrecord
280
     1
270
     1
271
     1
  0
XRECORD
  5
1F1
102
{ACAD_REACTORS
330
1EB
102
}
330
1EB
100
AcDbXrecord
280
     1
270
     1
271
     1
  0
XRECORD
  5
1EE
102
{ACAD_REACTORS
330
1EB
102
}
330
1EB
100
AcDbXrecord
280
     1
270
     1
271
     1
  0
XRECORD
  5
27E
102
{ACAD_REACTORS
330
1E3
102
}
330
1E3
100
AcDbXrecord
280
     1
102
MATERIAL
148
0.0
149
0.0
149
0.0
 93
        0
 94
      127
282
     0
 72
     0
 77
     0
171
     0
175
     0
179
     0
273
     0
  0
XRECORD
  5
1E5
102
{ACAD_REACTORS
330
1E3
102
}
330
1E3
100
AcDbXrecord
280
     1
270
     1
271
     1
  0
XRECORD
  5
1E4
102
{ACAD_REACTORS
330
1E3
102
}
330
1E3
100
AcDbXrecord
280
     1
270
     1
271
     1
  0
XRECORD
  5
1E8
102
{ACAD_REACTORS
330
1E3
102
}
330
1E3
100
AcDbXrecord
280
     1
270
     1
271
     1
  0
XRECORD
  5
1E7
102
{ACAD_REACTORS
330
1E3
102
}
330
1E3
100
AcDbXrecord
280
     1
270
     1
271
     1
  0
XRECORD
  5
1E9
102
{ACAD_REACTORS
330
1E3
102
}
330
1E3
100
AcDbXrecord
280
     1
270
     1
271
     1
  0
XRECORD
  5
1E6
102
{ACAD_REACTORS
330
1E3
102
}
330
1E3
100
AcDbXrecord
280
     1
270
     1
271
     1
  0
XRECORD
  5
280
102
{ACAD_REACTORS
330
1F3
102
}
330
1F3
100
AcDbXrecord
280
     1
102
MATERIAL
148
0.0
149
0.0
149
0.0
 93
        0
 94
      127
282
     0
 72
     0
 77
     0
171
     0
175
     0
179
     0
273
     0
  0
XRECORD
  5
1F5
102
{ACAD_REACTORS
330
1F3
102
}
330
1F3
100
AcDbXrecord
280
     1
270
     1
271
     1
  0
XRECORD
  5
1F4
102
{ACAD_REACTORS
330
1F3
102
}
330
1F3
100
AcDbXrecord
280
     1
270
     1
271
     1
  0
XRECORD
  5
1F8
102
{ACAD_REACTORS
330
1F3
102
}
330
1F3
100
AcDbXrecord
280
     1
270
     1
271
     1
  0
XRECORD
  5
1F7
102
{ACAD_REACTORS
330
1F3
102
}
330
1F3
100
AcDbXrecord
280
     1
270
     1
271
     1
  0
XRECORD
  5
1F9
102
{ACAD_REACTORS
330
1F3
102
}
330
1F3
100
AcDbXrecord
280
     1
270
     1
271
     1
  0
XRECORD
  5
1F6
102
{ACAD_REACTORS
330
1F3
102
}
330
1F3
100
AcDbXrecord
280
     1
270
     1
271
     1
  0
XRECORD
  5
2B4
102
{ACAD_REACTORS
330
2B3
102
}
330
2B3
100
AcDbXrecord
280
     1
102
DISPLAYNAME
  1
Imperial24
102
FLAGS
 90
        0
  0
CELLSTYLEMAP
  5
27B
102
{ACAD_REACTORS
330
27A
102
}
330
27A
100
AcDbCellStyleMap
 90
        3
300
CELLSTYLE
  1
TABLEFORMAT_BEGIN
 90
        5
170
     1
 91
        0
 92
    32768
 62
   257
 93
        1
300
CONTENTFORMAT
  1
CONTENTFORMAT_BEGIN
 90
        0
 91
        0
 92
      512
 93
        0
300

 40
0.0
140
1.0
 94
        5
 62
     0
340
226
144
0.25
309
CONTENTFORMAT_END
171
     0
 94
        0
309
TABLEFORMAT_END
  1
CELLSTYLE_BEGIN
 90
        1
 91
        1
300
_TITLE
309
CELLSTYLE_END
300
CELLSTYLE
  1
TABLEFORMAT_BEGIN
 90
        5
170
     1
 91
        0
 92
        0
 62
   257
 93
        1
300
CONTENTFORMAT
  1
CONTENTFORMAT_BEGIN
 90
        0
 91
        0
 92
      512
 93
        0
300

 40
0.0
140
1.0
 94
        5
 62
     0
340
226
144
0.18
309
CONTENTFORMAT_END
171
     0
 94
        0
309
TABLEFORMAT_END
  1
CELLSTYLE_BEGIN
 90
        2
 91
        1
300
_HEADER
309
CELLSTYLE_END
300
CELLSTYLE
  1
TABLEFORMAT_BEGIN
 90
        5
170
     1
 91
        0
 92
        0
 62
   257
 93
        1
300
CONTENTFORMAT
  1
CONTENTFORMAT_BEGIN
 90
        0
 91
        0
 92
      512
 93
        0
300

 40
0.0
140
1.0
 94
        2
 62
     0
340
226
144
0.18
309
CONTENTFORMAT_END
171
     0
 94
        0
309
TABLEFORMAT_END
  1
CELLSTYLE_BEGIN
 90
        3
 91
        2
300
_DATA
309
CELLSTYLE_END
  0
XRECORD
  5
2B1
102
{ACAD_REACTORS
330
27A
102
}
330
27A
100
AcDbXrecord
280
     1
102
ACAD_ROUNDTRIP_PRE2007_TABLESTYLE
 90
      512
 91
        0
  1

 92
      512
 93
        0
  2

 94
      512
 95
        0
  3

  0
XRECORD
  5
28C
102
{ACAD_REACTORS
330
28B
102
}
330
28B
100
AcDbXrecord
280
     1
102
RTVSPost2010Prop28
280
     1
102
RTVSPost2010PropOp28
 70
     1
102
RTVSPost2010Prop29
280
     1
102
RTVSPost2010PropOp29
 70
     1
102
RTVSPost2010Prop30
280
     0
102
RTVSPost2010PropOp30
 70
     1
102
RTVSPost2010Prop31
280
     0
102
RTVSPost2010PropOp31
 70
     1
102
RTVSPost2010Prop32
280
     0
102
RTVSPost2010PropOp32
 70
     1
102
RTVSPost2010Prop33
280
     0
102
RTVSPost2010PropOp33
 70
     1
102
RTVSPost2010Prop34
280
     0
102
RTVSPost2010PropOp34
 70
     1
102
RTVSPost2010Prop35
280
     0
102
RTVSPost2010PropOp35
 70
     1
102
RTVSPost2010Prop36
280
     0
102
RTVSPost2010PropOp36
 70
     1
102
RTVSPost2010Prop37
 90
       50
102
RTVSPost2010PropOp37
 70
     1
102
RTVSPost2010Prop38
140
0.0
102
RTVSPost2010PropOp38
 70
     1
102
RTVSPost2010Prop39
140
1.0
102
RTVSPost2010PropOp39
 70
     1
102
RTVSPost2010Prop40
 90
        0
102
RTVSPost2010PropOp40
 70
     1
102
RTVSPost2010Prop41ColorIndex
 90
       18
102
RTVSPost2010Prop41ColorRGB
 90
        0
102
RTVSPost2010PropOp41
 70
     1
102
RTVSPost2010Prop42
 90
       50
102
RTVSPost2010PropOp42
 70
     1
102
RTVSPost2010Prop43
 90
        3
102
RTVSPost2010PropOp43
 70
     1
102
RTVSPost2010Prop44ColorIndex
 90
        5
102
RTVSPost2010Prop44ColorRGB
 90
      255
102
RTVSPost2010PropOp44
 70
     1
102
RTVSPost2010Prop45
280
     0
102
RTVSPost2010PropOp45
 70
     1
102
RTVSPost2010Prop46
 90
       50
102
RTVSPost2010PropOp46
 70
     1
102
RTVSPost2010Prop47
 90
       50
102
RTVSPost2010PropOp47
 70
     1
102
RTVSPost2010Prop48
 90
       50
102
RTVSPost2010PropOp48
 70
     1
102
RTVSPost2010Prop49
280
     0
102
RTVSPost2010PropOp49
 70
     1
102
RTVSPost2010Prop50
 90
       50
102
RTVSPost2010PropOp50
 70
     1
102
RTVSPost2010Prop51ColorIndex
 90
      256
102
RTVSPost2010Prop51ColorRGB
 90
-16777216
102
RTVSPost2010PropOp51
 70
     0
102
RTVSPost2010Prop52
140
1.0
102
RTVSPost2010PropOp52
 70
     0
102
RTVSPost2010Prop53
 90
        2
102
RTVSPost2010PropOp53
 70
     1
102
RTVSPost2010Prop54
  1
strokes_ogs.tif
102
RTVSPost2010PropOp54
 70
     1
102
RTVSPost2010Prop55
280
     0
102
RTVSPost2010PropOp55
 70
     1
102
RTVSPost2010Prop56
140
1.0
102
RTVSPost2010PropOp56
 70
     1
102
RTVSPost2010Prop57
140
1.0
102
RTVSPost2010PropOp57
 70
     1
102
RTVSPropertyOp0
 70
     1
102
RTVSPropertyOp1
 70
     1
102
RTVSPropertyOp2
 70
     1
102
RTVSPropertyOp3
 70
     1
102
RTVSPropertyOp4
 70
     1
102
RTVSPropertyOp5
 70
     1
102
RTVSPropertyOp6
 70
     1
102
RTVSPropertyOp7
 70
     1
102
RTVSPropertyOp8
 70
     1
102
RTVSPropertyOp9
 70
     1
102
RTVSPropertyOp10
 70
     1
102
RTVSPropertyOp11
 70
     1
102
RTVSPropertyOp12
 70
     1
102
RTVSPropertyOp13
 70
     1
102
RTVSPropertyOp14
 70
     1
102
RTVSPropertyOp15
 70
     1
102
RTVSPropertyOp16
 70
     1
102
RTVSPropertyOp17
 70
     1
102
RTVSPropertyOp18
 70
     1
102
RTVSPropertyOp19
 70
     1
102
RTVSPropertyOp20
 70
     1
102
RTVSPropertyOp21
 70
     1
102
RTVSPropertyOp22
 70
     1
102
RTVSPropertyOp23
 70
     1
102
RTVSPropertyOp24
 70
     1
102
RTVSPropertyOp25
 70
     1
102
RTVSPropertyOp26
 70
     1
102
RTVSPropertyOp27
 70
     1
102
RTVSPropertyOp28
 70
     1
102
RTVSPropertyOp29
 70
     1
102
RTVSPropertyOp30
 70
     1
102
RTVSPropertyOp31
 70
     1
102
RTVSPropertyOp32
 70
     1
102
RTVSPropertyOp33
 70
     1
102
RTVSPropertyOp34
 70
     1
102
RTVSPropertyOp35
 70
     1
102
RTVSPropertyOp36
 70
     1
102
RTVSPropertyOp37
 70
     1
102
RTVSPropertyOp38
 70
     1
102
RTVSPropertyOp39
 70
     1
102
RTVSPropertyOp40
 70
     1
102
RTVSPropertyOp41
 70
     1
102
RTVSPropertyOp42
 70
     1
102
RTVSPropertyOp43
 70
     1
102
RTVSPropertyOp44
 70
     1
102
RTVSPropertyOp45
 70
     1
102
RTVSPropertyOp46
 70
     1
102
RTVSPropertyOp47
 70
     1
102
RTVSPropertyOp48
 70
     1
102
RTVSPropertyOp49
 70
     1
102
RTVSPropertyOp50
 70
     1
102
RTVSPropertyOp51
 70
     0
102
RTVSPropertyOp52
 70
     0
102
RTVSPropertyOp53
 70
     1
102
RTVSPropertyOp54
 70
     1
102
RTVSPropertyOp55
 70
     1
102
RTVSPropertyOp56
 70
     1
102
RTVSPropertyOp57
 70
     1
102
RTVSPropertyOp58
 70
     1
102
RTVSPropertyOp59
 70
     1
102
RTVSPropertyOp60
 70
     1
102
RTVSPropertyOp61
 70
     1
102
RTVSPropertyOp62
 70
     1
  0
XRECORD
  5
28A
102
{ACAD_REACTORS
330
289
102
}
330
289
100
AcDbXrecord
280
     1
102
RTVSPost2010Prop28
280
     0
102
RTVSPost2010PropOp28
 70
     1
102
RTVSPost2010Prop29
280
     1
102
RTVSPost2010PropOp29
 70
     1
102
RTVSPost2010Prop30
280
     1
102
RTVSPost2010PropOp30
 70
     1
102
RTVSPost2010Prop31
280
     0
102
RTVSPost2010PropOp31
 70
     1
102
RTVSPost2010Prop32
280
     0
102
RTVSPost2010PropOp32
 70
     1
102
RTVSPost2010Prop33
280
     0
102
RTVSPost2010PropOp33
 70
     1
102
RTVSPost2010Prop34
280
     0
102
RTVSPost2010PropOp34
 70
     1
102
RTVSPost2010Prop35
280
     0
102
RTVSPost2010PropOp35
 70
     1
102
RTVSPost2010Prop36
280
     0
102
RTVSPost2010PropOp36
 70
     1
102
RTVSPost2010Prop37
 90
       50
102
RTVSPost2010PropOp37
 70
     1
102
RTVSPost2010Prop38
140
0.0
102
RTVSPost2010PropOp38
 70
     1
102
RTVSPost2010Prop39
140
1.0
102
RTVSPost2010PropOp39
 70
     1
102
RTVSPost2010Prop40
 90
        0
102
RTVSPost2010PropOp40
 70
     1
102
RTVSPost2010Prop41ColorIndex
 90
       18
102
RTVSPost2010Prop41ColorRGB
 90
        0
102
RTVSPost2010PropOp41
 70
     1
102
RTVSPost2010Prop42
 90
       50
102
RTVSPost2010PropOp42
 70
     1
102
RTVSPost2010Prop43
 90
        3
102
RTVSPost2010PropOp43
 70
     1
102
RTVSPost2010Prop44ColorIndex
 90
        5
102
RTVSPost2010Prop44ColorRGB
 90
      255
102
RTVSPost2010PropOp44
 70
     1
102
RTVSPost2010Prop45
280
     0
102
RTVSPost2010PropOp45
 70
     1
102
RTVSPost2010Prop46
 90
       50
102
RTVSPost2010PropOp46
 70
     1
102
RTVSPost2010Prop47
 90
       50
102
RTVSPost2010PropOp47
 70
     1
102
RTVSPost2010Prop48
 90
       50
102
RTVSPost2010PropOp48
 70
     1
102
RTVSPost2010Prop49
280
     0
102
RTVSPost2010PropOp49
 70
     1
102
RTVSPost2010Prop50
 90
       50
102
RTVSPost2010PropOp50
 70
     1
102
RTVSPost2010Prop51ColorIndex
 90
      256
102
RTVSPost2010Prop51ColorRGB
 90
-16777216
102
RTVSPost2010PropOp51
 70
     0
102
RTVSPost2010Prop52
140
1.0
102
RTVSPost2010PropOp52
 70
     0
102
RTVSPost2010Prop53
 90
        2
102
RTVSPost2010PropOp53
 70
     1
102
RTVSPost2010Prop54
  1
strokes_ogs.tif
102
RTVSPost2010PropOp54
 70
     1
102
RTVSPost2010Prop55
280
     0
102
RTVSPost2010PropOp55
 70
     1
102
RTVSPost2010Prop56
140
1.0
102
RTVSPost2010PropOp56
 70
     1
102
RTVSPost2010Prop57
140
1.0
102
RTVSPost2010PropOp57
 70
     1
102
RTVSPropertyOp0
 70
     1
102
RTVSPropertyOp1
 70
     1
102
RTVSPropertyOp2
 70
     1
102
RTVSPropertyOp3
 70
     1
102
RTVSPropertyOp4
 70
     1
102
RTVSPropertyOp5
 70
     1
102
RTVSPropertyOp6
 70
     1
102
RTVSPropertyOp7
 70
     1
102
RTVSPropertyOp8
 70
     1
102
RTVSPropertyOp9
 70
     1
102
RTVSPropertyOp10
 70
     1
102
RTVSPropertyOp11
 70
     1
102
RTVSPropertyOp12
 70
     1
102
RTVSPropertyOp13
 70
     1
102
RTVSPropertyOp14
 70
     1
102
RTVSPropertyOp15
 70
     1
102
RTVSPropertyOp16
 70
     1
102
RTVSPropertyOp17
 70
     1
102
RTVSPropertyOp18
 70
     1
102
RTVSPropertyOp19
 70
     1
102
RTVSPropertyOp20
 70
     1
102
RTVSPropertyOp21
 70
     1
102
RTVSPropertyOp22
 70
     1
102
RTVSPropertyOp23
 70
     1
102
RTVSPropertyOp24
 70
     1
102
RTVSPropertyOp25
 70
     1
102
RTVSPropertyOp26
 70
     1
102
RTVSPropertyOp27
 70
     1
102
RTVSPropertyOp28
 70
     1
102
RTVSPropertyOp29
 70
     1
102
RTVSPropertyOp30
 70
     1
102
RTVSPropertyOp31
 70
     1
102
RTVSPropertyOp32
 70
     1
102
RTVSPropertyOp33
 70
     1
102
RTVSPropertyOp34
 70
     1
102
RTVSPropertyOp35
 70
     1
102
RTVSPropertyOp36
 70
     1
102
RTVSPropertyOp37
 70
     1
102
RTVSPropertyOp38
 70
     1
102
RTVSPropertyOp39
 70
     1
102
RTVSPropertyOp40
 70
     1
102
RTVSPropertyOp41
 70
     1
102
RTVSPropertyOp42
 70
     1
102
RTVSPropertyOp43
 70
     1
102
RTVSPropertyOp44
 70
     1
102
RTVSPropertyOp45
 70
     1
102
RTVSPropertyOp46
 70
     1
102
RTVSPropertyOp47
 70
     1
102
RTVSPropertyOp48
 70
     1
102
RTVSPropertyOp49
 70
     1
102
RTVSPropertyOp50
 70
     1
102
RTVSPropertyOp51
 70
     0
102
RTVSPropertyOp52
 70
     0
102
RTVSPropertyOp53
 70
     1
102
RTVSPropertyOp54
 70
     1
102
RTVSPropertyOp55
 70
     1
102
RTVSPropertyOp56
 70
     1
102
RTVSPropertyOp57
 70
     1
102
RTVSPropertyOp58
 70
     1
102
RTVSPropertyOp59
 70
     1
102
RTVSPropertyOp60
 70
     1
102
RTVSPropertyOp61
 70
     1
102
RTVSPropertyOp62
 70
     1
  0
XRECORD
  5
298
102
{ACAD_REACTORS
330
297
102
}
330
297
100
AcDbXrecord
280
     1
102
RTVSPost2010Prop28
280
     0
102
RTVSPost2010PropOp28
 70
     1
102
RTVSPost2010Prop29
280
     1
102
RTVSPost2010PropOp29
 70
     1
102
RTVSPost2010Prop30
280
     1
102
RTVSPost2010PropOp30
 70
     1
102
RTVSPost2010Prop31
280
     0
102
RTVSPost2010PropOp31
 70
     1
102
RTVSPost2010Prop32
280
     0
102
RTVSPost2010PropOp32
 70
     1
102
RTVSPost2010Prop33
280
     0
102
RTVSPost2010PropOp33
 70
     1
102
RTVSPost2010Prop34
280
     0
102
RTVSPost2010PropOp34
 70
     1
102
RTVSPost2010Prop35
280
     0
102
RTVSPost2010PropOp35
 70
     1
102
RTVSPost2010Prop36
280
     0
102
RTVSPost2010PropOp36
 70
     1
102
RTVSPost2010Prop37
 90
       50
102
RTVSPost2010PropOp37
 70
     1
102
RTVSPost2010Prop38
140
0.0
102
RTVSPost2010PropOp38
 70
     1
102
RTVSPost2010Prop39
140
1.0
102
RTVSPost2010PropOp39
 70
     1
102
RTVSPost2010Prop40
 90
        0
102
RTVSPost2010PropOp40
 70
     1
102
RTVSPost2010Prop41ColorIndex
 90
       18
102
RTVSPost2010Prop41ColorRGB
 90
        0
102
RTVSPost2010PropOp41
 70
     1
102
RTVSPost2010Prop42
 90
       50
102
RTVSPost2010PropOp42
 70
     1
102
RTVSPost2010Prop43
 90
        3
102
RTVSPost2010PropOp43
 70
     1
102
RTVSPost2010Prop44ColorIndex
 90
        5
102
RTVSPost2010Prop44ColorRGB
 90
      255
102
RTVSPost2010PropOp44
 70
     1
102
RTVSPost2010Prop45
280
     0
102
RTVSPost2010PropOp45
 70
     1
102
RTVSPost2010Prop46
 90
       50
102
RTVSPost2010PropOp46
 70
     1
102
RTVSPost2010Prop47
 90
       50
102
RTVSPost2010PropOp47
 70
     1
102
RTVSPost2010Prop48
 90
       50
102
RTVSPost2010PropOp48
 70
     1
102
RTVSPost2010Prop49
280
     0
102
RTVSPost2010PropOp49
 70
     1
102
RTVSPost2010Prop50
 90
       50
102
RTVSPost2010PropOp50
 70
     1
102
RTVSPost2010Prop51ColorIndex
 90
      256
102
RTVSPost2010Prop51ColorRGB
 90
-16777216
102
RTVSPost2010PropOp51
 70
     0
102
RTVSPost2010Prop52
140
1.0
102
RTVSPost2010PropOp52
 70
     0
102
RTVSPost2010Prop53
 90
        2
102
RTVSPost2010PropOp53
 70
     1
102
RTVSPost2010Prop54
  1
strokes_ogs.tif
102
RTVSPost2010PropOp54
 70
     1
102
RTVSPost2010Prop55
280
     0
102
RTVSPost2010PropOp55
 70
     1
102
RTVSPost2010Prop56
140
1.0
102
RTVSPost2010PropOp56
 70
     1
102
RTVSPost2010Prop57
140
1.0
102
RTVSPost2010PropOp57
 70
     1
102
RTVSPropertyOp0
 70
     1
102
RTVSPropertyOp1
 70
     1
102
RTVSPropertyOp2
 70
     1
102
RTVSPropertyOp3
 70
     1
102
RTVSPropertyOp4
 70
     1
102
RTVSPropertyOp5
 70
     1
102
RTVSPropertyOp6
 70
     1
102
RTVSPropertyOp7
 70
     1
102
RTVSPropertyOp8
 70
     1
102
RTVSPropertyOp9
 70
     1
102
RTVSPropertyOp10
 70
     1
102
RTVSPropertyOp11
 70
     1
102
RTVSPropertyOp12
 70
     1
102
RTVSPropertyOp13
 70
     1
102
RTVSPropertyOp14
 70
     1
102
RTVSPropertyOp15
 70
     1
102
RTVSPropertyOp16
 70
     1
102
RTVSPropertyOp17
 70
     1
102
RTVSPropertyOp18
 70
     1
102
RTVSPropertyOp19
 70
     1
102
RTVSPropertyOp20
 70
     1
102
RTVSPropertyOp21
 70
     1
102
RTVSPropertyOp22
 70
     1
102
RTVSPropertyOp23
 70
     1
102
RTVSPropertyOp24
 70
     1
102
RTVSPropertyOp25
 70
     1
102
RTVSPropertyOp26
 70
     1
102
RTVSPropertyOp27
 70
     1
102
RTVSPropertyOp28
 70
     1
102
RTVSPropertyOp29
 70
     1
102
RTVSPropertyOp30
 70
     1
102
RTVSPropertyOp31
 70
     1
102
RTVSPropertyOp32
 70
     1
102
RTVSPropertyOp33
 70
     1
102
RTVSPropertyOp34
 70
     1
102
RTVSPropertyOp35
 70
     1
102
RTVSPropertyOp36
 70
     1
102
RTVSPropertyOp37
 70
     1
102
RTVSPropertyOp38
 70
     1
102
RTVSPropertyOp39
 70
     1
102
RTVSPropertyOp40
 70
     1
102
RTVSPropertyOp41
 70
     1
102
RTVSPropertyOp42
 70
     1
102
RTVSPropertyOp43
 70
     1
102
RTVSPropertyOp44
 70
     1
102
RTVSPropertyOp45
 70
     1
102
RTVSPropertyOp46
 70
     1
102
RTVSPropertyOp47
 70
     1
102
RTVSPropertyOp48
 70
     1
102
RTVSPropertyOp49
 70
     1
102
RTVSPropertyOp50
 70
     1
102
RTVSPropertyOp51
 70
     0
102
RTVSPropertyOp52
 70
     0
102
RTVSPropertyOp53
 70
     1
102
RTVSPropertyOp54
 70
     1
102
RTVSPropertyOp55
 70
     1
102
RTVSPropertyOp56
 70
     1
102
RTVSPropertyOp57
 70
     1
102
RTVSPropertyOp58
 70
     1
102
RTVSPropertyOp59
 70
     1
102
RTVSPropertyOp60
 70
     1
102
RTVSPropertyOp61
 70
     1
102
RTVSPropertyOp62
 70
     1
  0
XRECORD
  5
2A0
102
{ACAD_REACTORS
330
29F
102
}
330
29F
100
AcDbXrecord
280
     1
102
RTVSPost2010Prop28
280
     0
102
RTVSPost2010PropOp28
 70
     1
102
RTVSPost2010Prop29
280
     1
102
RTVSPost2010PropOp29
 70
     1
102
RTVSPost2010Prop30
280
     1
102
RTVSPost2010PropOp30
 70
     1
102
RTVSPost2010Prop31
280
     0
102
RTVSPost2010PropOp31
 70
     1
102
RTVSPost2010Prop32
280
     0
102
RTVSPost2010PropOp32
 70
     1
102
RTVSPost2010Prop33
280
     0
102
RTVSPost2010PropOp33
 70
     1
102
RTVSPost2010Prop34
280
     0
102
RTVSPost2010PropOp34
 70
     1
102
RTVSPost2010Prop35
280
     0
102
RTVSPost2010PropOp35
 70
     1
102
RTVSPost2010Prop36
280
     0
102
RTVSPost2010PropOp36
 70
     1
102
RTVSPost2010Prop37
 90
       50
102
RTVSPost2010PropOp37
 70
     1
102
RTVSPost2010Prop38
140
0.0
102
RTVSPost2010PropOp38
 70
     1
102
RTVSPost2010Prop39
140
1.0
102
RTVSPost2010PropOp39
 70
     1
102
RTVSPost2010Prop40
 90
        0
102
RTVSPost2010PropOp40
 70
     1
102
RTVSPost2010Prop41ColorIndex
 90
       18
102
RTVSPost2010Prop41ColorRGB
 90
        0
102
RTVSPost2010PropOp41
 70
     1
102
RTVSPost2010Prop42
 90
       50
102
RTVSPost2010PropOp42
 70
     1
102
RTVSPost2010Prop43
 90
        3
102
RTVSPost2010PropOp43
 70
     1
102
RTVSPost2010Prop44ColorIndex
 90
        5
102
RTVSPost2010Prop44ColorRGB
 90
      255
102
RTVSPost2010PropOp44
 70
     1
102
RTVSPost2010Prop45
280
     0
102
RTVSPost2010PropOp45
 70
     1
102
RTVSPost2010Prop46
 90
       50
102
RTVSPost2010PropOp46
 70
     1
102
RTVSPost2010Prop47
 90
       50
102
RTVSPost2010PropOp47
 70
     1
102
RTVSPost2010Prop48
 90
       50
102
RTVSPost2010PropOp48
 70
     1
102
RTVSPost2010Prop49
280
     0
102
RTVSPost2010PropOp49
 70
     1
102
RTVSPost2010Prop50
 90
       50
102
RTVSPost2010PropOp50
 70
     1
102
RTVSPost2010Prop51ColorIndex
 90
      256
102
RTVSPost2010Prop51ColorRGB
 90
-16777216
102
RTVSPost2010PropOp51
 70
     0
102
RTVSPost2010Prop52
140
1.0
102
RTVSPost2010PropOp52
 70
     0
102
RTVSPost2010Prop53
 90
        2
102
RTVSPost2010PropOp53
 70
     1
102
RTVSPost2010Prop54
  1
strokes_ogs.tif
102
RTVSPost2010PropOp54
 70
     1
102
RTVSPost2010Prop55
280
     0
102
RTVSPost2010PropOp55
 70
     1
102
RTVSPost2010Prop56
140
1.0
102
RTVSPost2010PropOp56
 70
     1
102
RTVSPost2010Prop57
140
1.0
102
RTVSPost2010PropOp57
 70
     1
102
RTVSPropertyOp0
 70
     1
102
RTVSPropertyOp1
 70
     1
102
RTVSPropertyOp2
 70
     1
102
RTVSPropertyOp3
 70
     1
102
RTVSPropertyOp4
 70
     1
102
RTVSPropertyOp5
 70
     1
102
RTVSPropertyOp6
 70
     1
102
RTVSPropertyOp7
 70
     1
102
RTVSPropertyOp8
 70
     1
102
RTVSPropertyOp9
 70
     1
102
RTVSPropertyOp10
 70
     1
102
RTVSPropertyOp11
 70
     1
102
RTVSPropertyOp12
 70
     1
102
RTVSPropertyOp13
 70
     1
102
RTVSPropertyOp14
 70
     1
102
RTVSPropertyOp15
 70
     1
102
RTVSPropertyOp16
 70
     1
102
RTVSPropertyOp17
 70
     1
102
RTVSPropertyOp18
 70
     1
102
RTVSPropertyOp19
 70
     1
102
RTVSPropertyOp20
 70
     1
102
RTVSPropertyOp21
 70
     1
102
RTVSPropertyOp22
 70
     1
102
RTVSPropertyOp23
 70
     1
102
RTVSPropertyOp24
 70
     1
102
RTVSPropertyOp25
 70
     1
102
RTVSPropertyOp26
 70
     1
102
RTVSPropertyOp27
 70
     1
102
RTVSPropertyOp28
 70
     1
102
RTVSPropertyOp29
 70
     1
102
RTVSPropertyOp30
 70
     1
102
RTVSPropertyOp31
 70
     1
102
RTVSPropertyOp32
 70
     1
102
RTVSPropertyOp33
 70
     1
102
RTVSPropertyOp34
 70
     1
102
RTVSPropertyOp35
 70
     1
102
RTVSPropertyOp36
 70
     1
102
RTVSPropertyOp37
 70
     1
102
RTVSPropertyOp38
 70
     1
102
RTVSPropertyOp39
 70
     1
102
RTVSPropertyOp40
 70
     1
102
RTVSPropertyOp41
 70
     1
102
RTVSPropertyOp42
 70
     1
102
RTVSPropertyOp43
 70
     1
102
RTVSPropertyOp44
 70
     1
102
RTVSPropertyOp45
 70
     1
102
RTVSPropertyOp46
 70
     1
102
RTVSPropertyOp47
 70
     1
102
RTVSPropertyOp48
 70
     1
102
RTVSPropertyOp49
 70
     1
102
RTVSPropertyOp50
 70
     1
102
RTVSPropertyOp51
 70
     0
102
RTVSPropertyOp52
 70
     0
102
RTVSPropertyOp53
 70
     1
102
RTVSPropertyOp54
 70
     1
102
RTVSPropertyOp55
 70
     1
102
RTVSPropertyOp56
 70
     1
102
RTVSPropertyOp57
 70
     1
102
RTVSPropertyOp58
 70
     1
102
RTVSPropertyOp59
 70
     1
102
RTVSPropertyOp60
 70
     1
102
RTVSPropertyOp61
 70
     1
102
RTVSPropertyOp62
 70
     1
  0
XRECORD
  5
292
102
{ACAD_REACTORS
330
291
102
}
330
291
100
AcDbXrecord
280
     1
102
RTVSPost2010Prop28
280
     0
102
RTVSPost2010PropOp28
 70
     1
102
RTVSPost2010Prop29
280
     1
102
RTVSPost2010PropOp29
 70
     1
102
RTVSPost2010Prop30
280
     1
102
RTVSPost2010PropOp30
 70
     1
102
RTVSPost2010Prop31
280
     0
102
RTVSPost2010PropOp31
 70
     1
102
RTVSPost2010Prop32
280
     0
102
RTVSPost2010PropOp32
 70
     1
102
RTVSPost2010Prop33
280
     0
102
RTVSPost2010PropOp33
 70
     1
102
RTVSPost2010Prop34
280
     0
102
RTVSPost2010PropOp34
 70
     1
102
RTVSPost2010Prop35
280
     0
102
RTVSPost2010PropOp35
 70
     1
102
RTVSPost2010Prop36
280
     0
102
RTVSPost2010PropOp36
 70
     1
102
RTVSPost2010Prop37
 90
       50
102
RTVSPost2010PropOp37
 70
     1
102
RTVSPost2010Prop38
140
0.0
102
RTVSPost2010PropOp38
 70
     1
102
RTVSPost2010Prop39
140
1.0
102
RTVSPost2010PropOp39
 70
     1
102
RTVSPost2010Prop40
 90
        0
102
RTVSPost2010PropOp40
 70
     1
102
RTVSPost2010Prop41ColorIndex
 90
       18
102
RTVSPost2010Prop41ColorRGB
 90
        0
102
RTVSPost2010PropOp41
 70
     1
102
RTVSPost2010Prop42
 90
       50
102
RTVSPost2010PropOp42
 70
     1
102
RTVSPost2010Prop43
 90
        3
102
RTVSPost2010PropOp43
 70
     1
102
RTVSPost2010Prop44ColorIndex
 90
        5
102
RTVSPost2010Prop44ColorRGB
 90
      255
102
RTVSPost2010PropOp44
 70
     1
102
RTVSPost2010Prop45
280
     0
102
RTVSPost2010PropOp45
 70
     1
102
RTVSPost2010Prop46
 90
       50
102
RTVSPost2010PropOp46
 70
     1
102
RTVSPost2010Prop47
 90
       50
102
RTVSPost2010PropOp47
 70
     1
102
RTVSPost2010Prop48
 90
       50
102
RTVSPost2010PropOp48
 70
     1
102
RTVSPost2010Prop49
280
     0
102
RTVSPost2010PropOp49
 70
     1
102
RTVSPost2010Prop50
 90
       50
102
RTVSPost2010PropOp50
 70
     1
102
RTVSPost2010Prop51ColorIndex
 90
      256
102
RTVSPost2010Prop51ColorRGB
 90
-16777216
102
RTVSPost2010PropOp51
 70
     0
102
RTVSPost2010Prop52
140
1.0
102
RTVSPost2010PropOp52
 70
     0
102
RTVSPost2010Prop53
 90
        2
102
RTVSPost2010PropOp53
 70
     1
102
RTVSPost2010Prop54
  1
strokes_ogs.tif
102
RTVSPost2010PropOp54
 70
     1
102
RTVSPost2010Prop55
280
     0
102
RTVSPost2010PropOp55
 70
     1
102
RTVSPost2010Prop56
140
1.0
102
RTVSPost2010PropOp56
 70
     1
102
RTVSPost2010Prop57
140
1.0
102
RTVSPost2010PropOp57
 70
     1
102
RTVSPropertyOp0
 70
     1
102
RTVSPropertyOp1
 70
     1
102
RTVSPropertyOp2
 70
     1
102
RTVSPropertyOp3
 70
     1
102
RTVSPropertyOp4
 70
     1
102
RTVSPropertyOp5
 70
     1
102
RTVSPropertyOp6
 70
     1
102
RTVSPropertyOp7
 70
     1
102
RTVSPropertyOp8
 70
     1
102
RTVSPropertyOp9
 70
     1
102
RTVSPropertyOp10
 70
     1
102
RTVSPropertyOp11
 70
     1
102
RTVSPropertyOp12
 70
     1
102
RTVSPropertyOp13
 70
     1
102
RTVSPropertyOp14
 70
     1
102
RTVSPropertyOp15
 70
     1
102
RTVSPropertyOp16
 70
     1
102
RTVSPropertyOp17
 70
     1
102
RTVSPropertyOp18
 70
     1
102
RTVSPropertyOp19
 70
     1
102
RTVSPropertyOp20
 70
     1
102
RTVSPropertyOp21
 70
     1
102
RTVSPropertyOp22
 70
     1
102
RTVSPropertyOp23
 70
     1
102
RTVSPropertyOp24
 70
     1
102
RTVSPropertyOp25
 70
     1
102
RTVSPropertyOp26
 70
     1
102
RTVSPropertyOp27
 70
     1
102
RTVSPropertyOp28
 70
     1
102
RTVSPropertyOp29
 70
     1
102
RTVSPropertyOp30
 70
     1
102
RTVSPropertyOp31
 70
     1
102
RTVSPropertyOp32
 70
     1
102
RTVSPropertyOp33
 70
     1
102
RTVSPropertyOp34
 70
     1
102
RTVSPropertyOp35
 70
     1
102
RTVSPropertyOp36
 70
     1
102
RTVSPropertyOp37
 70
     1
102
RTVSPropertyOp38
 70
     1
102
RTVSPropertyOp39
 70
     1
102
RTVSPropertyOp40
 70
     1
102
RTVSPropertyOp41
 70
     1
102
RTVSPropertyOp42
 70
     1
102
RTVSPropertyOp43
 70
     1
102
RTVSPropertyOp44
 70
     1
102
RTVSPropertyOp45
 70
     1
102
RTVSPropertyOp46
 70
     1
102
RTVSPropertyOp47
 70
     1
102
RTVSPropertyOp48
 70
     1
102
RTVSPropertyOp49
 70
     1
102
RTVSPropertyOp50
 70
     1
102
RTVSPropertyOp51
 70
     0
102
RTVSPropertyOp52
 70
     0
102
RTVSPropertyOp53
 70
     1
102
RTVSPropertyOp54
 70
     1
102
RTVSPropertyOp55
 70
     1
102
RTVSPropertyOp56
 70
     1
102
RTVSPropertyOp57
 70
     1
102
RTVSPropertyOp58
 70
     1
102
RTVSPropertyOp59
 70
     1
102
RTVSPropertyOp60
 70
     1
102
RTVSPropertyOp61
 70
     1
102
RTVSPropertyOp62
 70
     1
  0
XRECORD
  5
296
102
{ACAD_REACTORS
330
295
102
}
330
295
100
AcDbXrecord
280
     1
102
RTVSPost2010Prop28
280
     0
102
RTVSPost2010PropOp28
 70
     1
102
RTVSPost2010Prop29
280
     1
102
RTVSPost2010PropOp29
 70
     1
102
RTVSPost2010Prop30
280
     1
102
RTVSPost2010PropOp30
 70
     1
102
RTVSPost2010Prop31
280
     0
102
RTVSPost2010PropOp31
 70
     1
102
RTVSPost2010Prop32
280
     0
102
RTVSPost2010PropOp32
 70
     1
102
RTVSPost2010Prop33
280
     0
102
RTVSPost2010PropOp33
 70
     1
102
RTVSPost2010Prop34
280
     0
102
RTVSPost2010PropOp34
 70
     1
102
RTVSPost2010Prop35
280
     0
102
RTVSPost2010PropOp35
 70
     1
102
RTVSPost2010Prop36
280
     0
102
RTVSPost2010PropOp36
 70
     1
102
RTVSPost2010Prop37
 90
       50
102
RTVSPost2010PropOp37
 70
     1
102
RTVSPost2010Prop38
140
0.0
102
RTVSPost2010PropOp38
 70
     1
102
RTVSPost2010Prop39
140
1.0
102
RTVSPost2010PropOp39
 70
     1
102
RTVSPost2010Prop40
 90
        0
102
RTVSPost2010PropOp40
 70
     1
102
RTVSPost2010Prop41ColorIndex
 90
       18
102
RTVSPost2010Prop41ColorRGB
 90
        0
102
RTVSPost2010PropOp41
 70
     1
102
RTVSPost2010Prop42
 90
       50
102
RTVSPost2010PropOp42
 70
     1
102
RTVSPost2010Prop43
 90
        3
102
RTVSPost2010PropOp43
 70
     1
102
RTVSPost2010Prop44ColorIndex
 90
        5
102
RTVSPost2010Prop44ColorRGB
 90
      255
102
RTVSPost2010PropOp44
 70
     1
102
RTVSPost2010Prop45
280
     0
102
RTVSPost2010PropOp45
 70
     1
102
RTVSPost2010Prop46
 90
       50
102
RTVSPost2010PropOp46
 70
     1
102
RTVSPost2010Prop47
 90
       50
102
RTVSPost2010PropOp47
 70
     1
102
RTVSPost2010Prop48
 90
       50
102
RTVSPost2010PropOp48
 70
     1
102
RTVSPost2010Prop49
280
     0
102
RTVSPost2010PropOp49
 70
     1
102
RTVSPost2010Prop50
 90
       50
102
RTVSPost2010PropOp50
 70
     1
102
RTVSPost2010Prop51ColorIndex
 90
      256
102
RTVSPost2010Prop51ColorRGB
 90
-16777216
102
RTVSPost2010PropOp51
 70
     0
102
RTVSPost2010Prop52
140
1.0
102
RTVSPost2010PropOp52
 70
     0
102
RTVSPost2010Prop53
 90
        2
102
RTVSPost2010PropOp53
 70
     1
102
RTVSPost2010Prop54
  1
strokes_ogs.tif
102
RTVSPost2010PropOp54
 70
     1
102
RTVSPost2010Prop55
280
     0
102
RTVSPost2010PropOp55
 70
     1
102
RTVSPost2010Prop56
140
1.0
102
RTVSPost2010PropOp56
 70
     1
102
RTVSPost2010Prop57
140
1.0
102
RTVSPost2010PropOp57
 70
     1
102
RTVSPropertyOp0
 70
     1
102
RTVSPropertyOp1
 70
     1
102
RTVSPropertyOp2
 70
     1
102
RTVSPropertyOp3
 70
     1
102
RTVSPropertyOp4
 70
     1
102
RTVSPropertyOp5
 70
     1
102
RTVSPropertyOp6
 70
     1
102
RTVSPropertyOp7
 70
     1
102
RTVSPropertyOp8
 70
     1
102
RTVSPropertyOp9
 70
     1
102
RTVSPropertyOp10
 70
     1
102
RTVSPropertyOp11
 70
     1
102
RTVSPropertyOp12
 70
     1
102
RTVSPropertyOp13
 70
     1
102
RTVSPropertyOp14
 70
     1
102
RTVSPropertyOp15
 70
     1
102
RTVSPropertyOp16
 70
     1
102
RTVSPropertyOp17
 70
     1
102
RTVSPropertyOp18
 70
     1
102
RTVSPropertyOp19
 70
     1
102
RTVSPropertyOp20
 70
     1
102
RTVSPropertyOp21
 70
     1
102
RTVSPropertyOp22
 70
     1
102
RTVSPropertyOp23
 70
     1
102
RTVSPropertyOp24
 70
     1
102
RTVSPropertyOp25
 70
     1
102
RTVSPropertyOp26
 70
     1
102
RTVSPropertyOp27
 70
     1
102
RTVSPropertyOp28
 70
     1
102
RTVSPropertyOp29
 70
     1
102
RTVSPropertyOp30
 70
     1
102
RTVSPropertyOp31
 70
     1
102
RTVSPropertyOp32
 70
     1
102
RTVSPropertyOp33
 70
     1
102
RTVSPropertyOp34
 70
     1
102
RTVSPropertyOp35
 70
     1
102
RTVSPropertyOp36
 70
     1
102
RTVSPropertyOp37
 70
     1
102
RTVSPropertyOp38
 70
     1
102
RTVSPropertyOp39
 70
     1
102
RTVSPropertyOp40
 70
     1
102
RTVSPropertyOp41
 70
     1
102
RTVSPropertyOp42
 70
     1
102
RTVSPropertyOp43
 70
     1
102
RTVSPropertyOp44
 70
     1
102
RTVSPropertyOp45
 70
     1
102
RTVSPropertyOp46
 70
     1
102
RTVSPropertyOp47
 70
     1
102
RTVSPropertyOp48
 70
     1
102
RTVSPropertyOp49
 70
     1
102
RTVSPropertyOp50
 70
     1
102
RTVSPropertyOp51
 70
     0
102
RTVSPropertyOp52
 70
     0
102
RTVSPropertyOp53
 70
     1
102
RTVSPropertyOp54
 70
     1
102
RTVSPropertyOp55
 70
     1
102
RTVSPropertyOp56
 70
     1
102
RTVSPropertyOp57
 70
     1
102
RTVSPropertyOp58
 70
     1
102
RTVSPropertyOp59
 70
     1
102
RTVSPropertyOp60
 70
     1
102
RTVSPropertyOp61
 70
     1
102
RTVSPropertyOp62
 70
     1
  0
XRECORD
  5
2B0
102
{ACAD_REACTORS
330
2AF
102
}
330
2AF
100
AcDbXrecord
280
     1
102
RTVSPost2010Prop28
280
     0
102
RTVSPost2010PropOp28
 70
     1
102
RTVSPost2010Prop29
280
     1
102
RTVSPost2010PropOp29
 70
     1
102
RTVSPost2010Prop30
280
     1
102
RTVSPost2010PropOp30
 70
     1
102
RTVSPost2010Prop31
280
     0
102
RTVSPost2010PropOp31
 70
     1
102
RTVSPost2010Prop32
280
     0
102
RTVSPost2010PropOp32
 70
     1
102
RTVSPost2010Prop33
280
     0
102
RTVSPost2010PropOp33
 70
     1
102
RTVSPost2010Prop34
280
     0
102
RTVSPost2010PropOp34
 70
     1
102
RTVSPost2010Prop35
280
     0
102
RTVSPost2010PropOp35
 70
     1
102
RTVSPost2010Prop36
280
     0
102
RTVSPost2010PropOp36
 70
     1
102
RTVSPost2010Prop37
 90
       50
102
RTVSPost2010PropOp37
 70
     0
102
RTVSPost2010Prop38
140
0.0
102
RTVSPost2010PropOp38
 70
     0
102
RTVSPost2010Prop39
140
1.0
102
RTVSPost2010PropOp39
 70
     0
102
RTVSPost2010Prop40
 90
        0
102
RTVSPost2010PropOp40
 70
     0
102
RTVSPost2010Prop41ColorIndex
 90
       18
102
RTVSPost2010Prop41ColorRGB
 90
        0
102
RTVSPost2010PropOp41
 70
     0
102
RTVSPost2010Prop42
 90
       50
102
RTVSPost2010PropOp42
 70
     0
102
RTVSPost2010Prop43
 90
        3
102
RTVSPost2010PropOp43
 70
     0
102
RTVSPost2010Prop44ColorIndex
 90
        5
102
RTVSPost2010Prop44ColorRGB
 90
      255
102
RTVSPost2010PropOp44
 70
     0
102
RTVSPost2010Prop45
280
     0
102
RTVSPost2010PropOp45
 70
     1
102
RTVSPost2010Prop46
 90
       50
102
RTVSPost2010PropOp46
 70
     0
102
RTVSPost2010Prop47
 90
       50
102
RTVSPost2010PropOp47
 70
     0
102
RTVSPost2010Prop48
 90
       50
102
RTVSPost2010PropOp48
 70
     0
102
RTVSPost2010Prop49
280
     0
102
RTVSPost2010PropOp49
 70
     1
102
RTVSPost2010Prop50
 90
       50
102
RTVSPost2010PropOp50
 70
     0
102
RTVSPost2010Prop51ColorIndex
 90
      256
102
RTVSPost2010Prop51ColorRGB
 90
-16777216
102
RTVSPost2010PropOp51
 70
     0
102
RTVSPost2010Prop52
140
1.0
102
RTVSPost2010PropOp52
 70
     0
102
RTVSPost2010Prop53
 90
        2
102
RTVSPost2010PropOp53
 70
     0
102
RTVSPost2010Prop54
  1
strokes_ogs.tif
102
RTVSPost2010PropOp54
 70
     0
102
RTVSPost2010Prop55
280
     0
102
RTVSPost2010PropOp55
 70
     1
102
RTVSPost2010Prop56
140
1.0
102
RTVSPost2010PropOp56
 70
     0
102
RTVSPost2010Prop57
140
1.0
102
RTVSPost2010PropOp57
 70
     0
102
RTVSPropertyOp0
 70
     0
102
RTVSPropertyOp1
 70
     0
102
RTVSPropertyOp2
 70
     0
102
RTVSPropertyOp3
 70
     0
102
RTVSPropertyOp4
 70
     0
102
RTVSPropertyOp5
 70
     0
102
RTVSPropertyOp6
 70
     0
102
RTVSPropertyOp7
 70
     0
102
RTVSPropertyOp8
 70
     0
102
RTVSPropertyOp9
 70
     0
102
RTVSPropertyOp10
 70
     0
102
RTVSPropertyOp11
 70
     0
102
RTVSPropertyOp12
 70
     0
102
RTVSPropertyOp13
 70
     0
102
RTVSPropertyOp14
 70
     2
102
RTVSPropertyOp15
 70
     0
102
RTVSPropertyOp16
 70
     0
102
RTVSPropertyOp17
 70
     0
102
RTVSPropertyOp18
 70
     0
102
RTVSPropertyOp19
 70
     0
102
RTVSPropertyOp20
 70
     0
102
RTVSPropertyOp21
 70
     0
102
RTVSPropertyOp22
 70
     0
102
RTVSPropertyOp23
 70
     0
102
RTVSPropertyOp24
 70
     0
102
RTVSPropertyOp25
 70
     0
102
RTVSPropertyOp26
 70
     0
102
RTVSPropertyOp27
 70
     0
102
RTVSPropertyOp28
 70
     1
102
RTVSPropertyOp29
 70
     1
102
RTVSPropertyOp30
 70
     1
102
RTVSPropertyOp31
 70
     1
102
RTVSPropertyOp32
 70
     1
102
RTVSPropertyOp33
 70
     1
102
RTVSPropertyOp34
 70
     1
102
RTVSPropertyOp35
 70
     1
102
RTVSPropertyOp36
 70
     1
102
RTVSPropertyOp37
 70
     0
102
RTVSPropertyOp38
 70
     0
102
RTVSPropertyOp39
 70
     0
102
RTVSPropertyOp40
 70
     0
102
RTVSPropertyOp41
 70
     0
102
RTVSPropertyOp42
 70
     0
102
RTVSPropertyOp43
 70
     0
102
RTVSPropertyOp44
 70
     0
102
RTVSPropertyOp45
 70
     1
102
RTVSPropertyOp46
 70
     0
102
RTVSPropertyOp47
 70
     0
102
RTVSPropertyOp48
 70
     0
102
RTVSPropertyOp49
 70
     1
102
RTVSPropertyOp50
 70
     0
102
RTVSPropertyOp51
 70
     0
102
RTVSPropertyOp52
 70
     0
102
RTVSPropertyOp53
 70
     0
102
RTVSPropertyOp54
 70
     0
102
RTVSPropertyOp55
 70
     1
102
RTVSPropertyOp56
 70
     0
102
RTVSPropertyOp57
 70
     0
102
RTVSPropertyOp58
 70
     0
102
RTVSPropertyOp59
 70
     0
102
RTVSPropertyOp60
 70
     0
102
RTVSPropertyOp61
 70
     0
102
RTVSPropertyOp62
 70
     0
  0
XRECORD
  5
29E
102
{ACAD_REACTORS
330
29D
102
}
330
29D
100
AcDbXrecord
280
     1
102
RTVSPost2010Prop28
280
     0
102
RTVSPost2010PropOp28
 70
     1
102
RTVSPost2010Prop29
280
     1
102
RTVSPost2010PropOp29
 70
     1
102
RTVSPost2010Prop30
280
     1
102
RTVSPost2010PropOp30
 70
     1
102
RTVSPost2010Prop31
280
     0
102
RTVSPost2010PropOp31
 70
     1
102
RTVSPost2010Prop32
280
     0
102
RTVSPost2010PropOp32
 70
     1
102
RTVSPost2010Prop33
280
     0
102
RTVSPost2010PropOp33
 70
     1
102
RTVSPost2010Prop34
280
     0
102
RTVSPost2010PropOp34
 70
     1
102
RTVSPost2010Prop35
280
     0
102
RTVSPost2010PropOp35
 70
     1
102
RTVSPost2010Prop36
280
     0
102
RTVSPost2010PropOp36
 70
     1
102
RTVSPost2010Prop37
 90
       50
102
RTVSPost2010PropOp37
 70
     1
102
RTVSPost2010Prop38
140
0.0
102
RTVSPost2010PropOp38
 70
     1
102
RTVSPost2010Prop39
140
1.0
102
RTVSPost2010PropOp39
 70
     1
102
RTVSPost2010Prop40
 90
        0
102
RTVSPost2010PropOp40
 70
     1
102
RTVSPost2010Prop41ColorIndex
 90
       18
102
RTVSPost2010Prop41ColorRGB
 90
        0
102
RTVSPost2010PropOp41
 70
     1
102
RTVSPost2010Prop42
 90
       50
102
RTVSPost2010PropOp42
 70
     1
102
RTVSPost2010Prop43
 90
        3
102
RTVSPost2010PropOp43
 70
     1
102
RTVSPost2010Prop44ColorIndex
 90
        5
102
RTVSPost2010Prop44ColorRGB
 90
      255
102
RTVSPost2010PropOp44
 70
     1
102
RTVSPost2010Prop45
280
     0
102
RTVSPost2010PropOp45
 70
     1
102
RTVSPost2010Prop46
 90
       50
102
RTVSPost2010PropOp46
 70
     1
102
RTVSPost2010Prop47
 90
       50
102
RTVSPost2010PropOp47
 70
     1
102
RTVSPost2010Prop48
 90
       50
102
RTVSPost2010PropOp48
 70
     1
102
RTVSPost2010Prop49
280
     0
102
RTVSPost2010PropOp49
 70
     1
102
RTVSPost2010Prop50
 90
       50
102
RTVSPost2010PropOp50
 70
     1
102
RTVSPost2010Prop51ColorIndex
 90
      256
102
RTVSPost2010Prop51ColorRGB
 90
-16777216
102
RTVSPost2010PropOp51
 70
     0
102
RTVSPost2010Prop52
140
1.0
102
RTVSPost2010PropOp52
 70
     0
102
RTVSPost2010Prop53
 90
        2
102
RTVSPost2010PropOp53
 70
     1
102
RTVSPost2010Prop54
  1
strokes_ogs.tif
102
RTVSPost2010PropOp54
 70
     1
102
RTVSPost2010Prop55
280
     0
102
RTVSPost2010PropOp55
 70
     1
102
RTVSPost2010Prop56
140
1.0
102
RTVSPost2010PropOp56
 70
     1
102
RTVSPost2010Prop57
140
1.0
102
RTVSPost2010PropOp57
 70
     1
102
RTVSPropertyOp0
 70
     1
102
RTVSPropertyOp1
 70
     1
102
RTVSPropertyOp2
 70
     1
102
RTVSPropertyOp3
 70
     1
102
RTVSPropertyOp4
 70
     1
102
RTVSPropertyOp5
 70
     1
102
RTVSPropertyOp6
 70
     1
102
RTVSPropertyOp7
 70
     1
102
RTVSPropertyOp8
 70
     1
102
RTVSPropertyOp9
 70
     1
102
RTVSPropertyOp10
 70
     1
102
RTVSPropertyOp11
 70
     1
102
RTVSPropertyOp12
 70
     1
102
RTVSPropertyOp13
 70
     1
102
RTVSPropertyOp14
 70
     1
102
RTVSPropertyOp15
 70
     1
102
RTVSPropertyOp16
 70
     1
102
RTVSPropertyOp17
 70
     1
102
RTVSPropertyOp18
 70
     1
102
RTVSPropertyOp19
 70
     1
102
RTVSPropertyOp20
 70
     1
102
RTVSPropertyOp21
 70
     1
102
RTVSPropertyOp22
 70
     1
102
RTVSPropertyOp23
 70
     1
102
RTVSPropertyOp24
 70
     1
102
RTVSPropertyOp25
 70
     1
102
RTVSPropertyOp26
 70
     1
102
RTVSPropertyOp27
 70
     1
102
RTVSPropertyOp28
 70
     1
102
RTVSPropertyOp29
 70
     1
102
RTVSPropertyOp30
 70
     1
102
RTVSPropertyOp31
 70
     1
102
RTVSPropertyOp32
 70
     1
102
RTVSPropertyOp33
 70
     1
102
RTVSPropertyOp34
 70
     1
102
RTVSPropertyOp35
 70
     1
102
RTVSPropertyOp36
 70
     1
102
RTVSPropertyOp37
 70
     1
102
RTVSPropertyOp38
 70
     1
102
RTVSPropertyOp39
 70
     1
102
RTVSPropertyOp40
 70
     1
102
RTVSPropertyOp41
 70
     1
102
RTVSPropertyOp42
 70
     1
102
RTVSPropertyOp43
 70
     1
102
RTVSPropertyOp44
 70
     1
102
RTVSPropertyOp45
 70
     1
102
RTVSPropertyOp46
 70
     1
102
RTVSPropertyOp47
 70
     1
102
RTVSPropertyOp48
 70
     1
102
RTVSPropertyOp49
 70
     1
102
RTVSPropertyOp50
 70
     1
102
RTVSPropertyOp51
 70
     0
102
RTVSPropertyOp52
 70
     0
102
RTVSPropertyOp53
 70
     1
102
RTVSPropertyOp54
 70
     1
102
RTVSPropertyOp55
 70
     1
102
RTVSPropertyOp56
 70
     1
102
RTVSPropertyOp57
 70
     1
102
RTVSPropertyOp58
 70
     1
102
RTVSPropertyOp59
 70
     1
102
RTVSPropertyOp60
 70
     1
102
RTVSPropertyOp61
 70
     1
102
RTVSPropertyOp62
 70
     1
  0
XRECORD
  5
282
102
{ACAD_REACTORS
330
281
102
}
330
281
100
AcDbXrecord
280
     1
102
RTVSPost2010Prop28
280
     0
102
RTVSPost2010PropOp28
 70
     1
102
RTVSPost2010Prop29
280
     1
102
RTVSPost2010PropOp29
 70
     1
102
RTVSPost2010Prop30
280
     1
102
RTVSPost2010PropOp30
 70
     1
102
RTVSPost2010Prop31
280
     0
102
RTVSPost2010PropOp31
 70
     1
102
RTVSPost2010Prop32
280
     0
102
RTVSPost2010PropOp32
 70
     1
102
RTVSPost2010Prop33
280
     0
102
RTVSPost2010PropOp33
 70
     1
102
RTVSPost2010Prop34
280
     0
102
RTVSPost2010PropOp34
 70
     1
102
RTVSPost2010Prop35
280
     0
102
RTVSPost2010PropOp35
 70
     1
102
RTVSPost2010Prop36
280
     0
102
RTVSPost2010PropOp36
 70
     1
102
RTVSPost2010Prop37
 90
       50
102
RTVSPost2010PropOp37
 70
     1
102
RTVSPost2010Prop38
140
0.0
102
RTVSPost2010PropOp38
 70
     1
102
RTVSPost2010Prop39
140
1.0
102
RTVSPost2010PropOp39
 70
     1
102
RTVSPost2010Prop40
 90
        0
102
RTVSPost2010PropOp40
 70
     1
102
RTVSPost2010Prop41ColorIndex
 90
       18
102
RTVSPost2010Prop41ColorRGB
 90
        0
102
RTVSPost2010PropOp41
 70
     1
102
RTVSPost2010Prop42
 90
       50
102
RTVSPost2010PropOp42
 70
     1
102
RTVSPost2010Prop43
 90
        3
102
RTVSPost2010PropOp43
 70
     1
102
RTVSPost2010Prop44ColorIndex
 90
        5
102
RTVSPost2010Prop44ColorRGB
 90
      255
102
RTVSPost2010PropOp44
 70
     1
102
RTVSPost2010Prop45
280
     0
102
RTVSPost2010PropOp45
 70
     1
102
RTVSPost2010Prop46
 90
       50
102
RTVSPost2010PropOp46
 70
     1
102
RTVSPost2010Prop47
 90
       50
102
RTVSPost2010PropOp47
 70
     1
102
RTVSPost2010Prop48
 90
       50
102
RTVSPost2010PropOp48
 70
     1
102
RTVSPost2010Prop49
280
     0
102
RTVSPost2010PropOp49
 70
     1
102
RTVSPost2010Prop50
 90
       50
102
RTVSPost2010PropOp50
 70
     1
102
RTVSPost2010Prop51ColorIndex
 90
      256
102
RTVSPost2010Prop51ColorRGB
 90
-16777216
102
RTVSPost2010PropOp51
 70
     0
102
RTVSPost2010Prop52
140
1.0
102
RTVSPost2010PropOp52
 70
     0
102
RTVSPost2010Prop53
 90
        2
102
RTVSPost2010PropOp53
 70
     1
102
RTVSPost2010Prop54
  1
strokes_ogs.tif
102
RTVSPost2010PropOp54
 70
     1
102
RTVSPost2010Prop55
280
     0
102
RTVSPost2010PropOp55
 70
     1
102
RTVSPost2010Prop56
140
1.0
102
RTVSPost2010PropOp56
 70
     1
102
RTVSPost2010Prop57
140
1.0
102
RTVSPost2010PropOp57
 70
     1
102
RTVSPropertyOp0
 70
     1
102
RTVSPropertyOp1
 70
     1
102
RTVSPropertyOp2
 70
     1
102
RTVSPropertyOp3
 70
     1
102
RTVSPropertyOp4
 70
     1
102
RTVSPropertyOp5
 70
     1
102
RTVSPropertyOp6
 70
     1
102
RTVSPropertyOp7
 70
     1
102
RTVSPropertyOp8
 70
     1
102
RTVSPropertyOp9
 70
     1
102
RTVSPropertyOp10
 70
     1
102
RTVSPropertyOp11
 70
     1
102
RTVSPropertyOp12
 70
     1
102
RTVSPropertyOp13
 70
     1
102
RTVSPropertyOp14
 70
     1
102
RTVSPropertyOp15
 70
     1
102
RTVSPropertyOp16
 70
     1
102
RTVSPropertyOp17
 70
     1
102
RTVSPropertyOp18
 70
     1
102
RTVSPropertyOp19
 70
     1
102
RTVSPropertyOp20
 70
     1
102
RTVSPropertyOp21
 70
     1
102
RTVSPropertyOp22
 70
     1
102
RTVSPropertyOp23
 70
     1
102
RTVSPropertyOp24
 70
     1
102
RTVSPropertyOp25
 70
     1
102
RTVSPropertyOp26
 70
     1
102
RTVSPropertyOp27
 70
     1
102
RTVSPropertyOp28
 70
     1
102
RTVSPropertyOp29
 70
     1
102
RTVSPropertyOp30
 70
     1
102
RTVSPropertyOp31
 70
     1
102
RTVSPropertyOp32
 70
     1
102
RTVSPropertyOp33
 70
     1
102
RTVSPropertyOp34
 70
     1
102
RTVSPropertyOp35
 70
     1
102
RTVSPropertyOp36
 70
     1
102
RTVSPropertyOp37
 70
     1
102
RTVSPropertyOp38
 70
     1
102
RTVSPropertyOp39
 70
     1
102
RTVSPropertyOp40
 70
     1
102
RTVSPropertyOp41
 70
     1
102
RTVSPropertyOp42
 70
     1
102
RTVSPropertyOp43
 70
     1
102
RTVSPropertyOp44
 70
     1
102
RTVSPropertyOp45
 70
     1
102
RTVSPropertyOp46
 70
     1
102
RTVSPropertyOp47
 70
     1
102
RTVSPropertyOp48
 70
     1
102
RTVSPropertyOp49
 70
     1
102
RTVSPropertyOp50
 70
     1
102
RTVSPropertyOp51
 70
     0
102
RTVSPropertyOp52
 70
     0
102
RTVSPropertyOp53
 70
     1
102
RTVSPropertyOp54
 70
     1
102
RTVSPropertyOp55
 70
     1
102
RTVSPropertyOp56
 70
     1
102
RTVSPropertyOp57
 70
     1
102
RTVSPropertyOp58
 70
     1
102
RTVSPropertyOp59
 70
     1
102
RTVSPropertyOp60
 70
     1
102
RTVSPropertyOp61
 70
     1
102
RTVSPropertyOp62
 70
     1
  0
XRECORD
  5
284
102
{ACAD_REACTORS
330
283
102
}
330
283
100
AcDbXrecord
280
     1
102
RTVSPost2010Prop28
280
     0
102
RTVSPost2010PropOp28
 70
     1
102
RTVSPost2010Prop29
280
     1
102
RTVSPost2010PropOp29
 70
     1
102
RTVSPost2010Prop30
280
     1
102
RTVSPost2010PropOp30
 70
     1
102
RTVSPost2010Prop31
280
     0
102
RTVSPost2010PropOp31
 70
     1
102
RTVSPost2010Prop32
280
     0
102
RTVSPost2010PropOp32
 70
     1
102
RTVSPost2010Prop33
280
     0
102
RTVSPost2010PropOp33
 70
     1
102
RTVSPost2010Prop34
280
     0
102
RTVSPost2010PropOp34
 70
     1
102
RTVSPost2010Prop35
280
     0
102
RTVSPost2010PropOp35
 70
     1
102
RTVSPost2010Prop36
280
     0
102
RTVSPost2010PropOp36
 70
     1
102
RTVSPost2010Prop37
 90
       50
102
RTVSPost2010PropOp37
 70
     1
102
RTVSPost2010Prop38
140
0.0
102
RTVSPost2010PropOp38
 70
     1
102
RTVSPost2010Prop39
140
1.0
102
RTVSPost2010PropOp39
 70
     1
102
RTVSPost2010Prop40
 90
        0
102
RTVSPost2010PropOp40
 70
     1
102
RTVSPost2010Prop41ColorIndex
 90
       18
102
RTVSPost2010Prop41ColorRGB
 90
        0
102
RTVSPost2010PropOp41
 70
     1
102
RTVSPost2010Prop42
 90
       50
102
RTVSPost2010PropOp42
 70
     1
102
RTVSPost2010Prop43
 90
        3
102
RTVSPost2010PropOp43
 70
     1
102
RTVSPost2010Prop44ColorIndex
 90
        5
102
RTVSPost2010Prop44ColorRGB
 90
      255
102
RTVSPost2010PropOp44
 70
     1
102
RTVSPost2010Prop45
280
     0
102
RTVSPost2010PropOp45
 70
     1
102
RTVSPost2010Prop46
 90
       50
102
RTVSPost2010PropOp46
 70
     1
102
RTVSPost2010Prop47
 90
       50
102
RTVSPost2010PropOp47
 70
     1
102
RTVSPost2010Prop48
 90
       50
102
RTVSPost2010PropOp48
 70
     1
102
RTVSPost2010Prop49
280
     0
102
RTVSPost2010PropOp49
 70
     1
102
RTVSPost2010Prop50
 90
       50
102
RTVSPost2010PropOp50
 70
     1
102
RTVSPost2010Prop51ColorIndex
 90
      256
102
RTVSPost2010Prop51ColorRGB
 90
-16777216
102
RTVSPost2010PropOp51
 70
     0
102
RTVSPost2010Prop52
140
1.0
102
RTVSPost2010PropOp52
 70
     0
102
RTVSPost2010Prop53
 90
        2
102
RTVSPost2010PropOp53
 70
     1
102
RTVSPost2010Prop54
  1
strokes_ogs.tif
102
RTVSPost2010PropOp54
 70
     1
102
RTVSPost2010Prop55
280
     0
102
RTVSPost2010PropOp55
 70
     1
102
RTVSPost2010Prop56
140
1.0
102
RTVSPost2010PropOp56
 70
     1
102
RTVSPost2010Prop57
140
1.0
102
RTVSPost2010PropOp57
 70
     1
102
RTVSPropertyOp0
 70
     1
102
RTVSPropertyOp1
 70
     1
102
RTVSPropertyOp2
 70
     1
102
RTVSPropertyOp3
 70
     1
102
RTVSPropertyOp4
 70
     1
102
RTVSPropertyOp5
 70
     1
102
RTVSPropertyOp6
 70
     1
102
RTVSPropertyOp7
 70
     1
102
RTVSPropertyOp8
 70
     1
102
RTVSPropertyOp9
 70
     1
102
RTVSPropertyOp10
 70
     1
102
RTVSPropertyOp11
 70
     1
102
RTVSPropertyOp12
 70
     1
102
RTVSPropertyOp13
 70
     1
102
RTVSPropertyOp14
 70
     1
102
RTVSPropertyOp15
 70
     1
102
RTVSPropertyOp16
 70
     1
102
RTVSPropertyOp17
 70
     1
102
RTVSPropertyOp18
 70
     1
102
RTVSPropertyOp19
 70
     1
102
RTVSPropertyOp20
 70
     1
102
RTVSPropertyOp21
 70
     1
102
RTVSPropertyOp22
 70
     1
102
RTVSPropertyOp23
 70
     1
102
RTVSPropertyOp24
 70
     1
102
RTVSPropertyOp25
 70
     1
102
RTVSPropertyOp26
 70
     1
102
RTVSPropertyOp27
 70
     1
102
RTVSPropertyOp28
 70
     1
102
RTVSPropertyOp29
 70
     1
102
RTVSPropertyOp30
 70
     1
102
RTVSPropertyOp31
 70
     1
102
RTVSPropertyOp32
 70
     1
102
RTVSPropertyOp33
 70
     1
102
RTVSPropertyOp34
 70
     1
102
RTVSPropertyOp35
 70
     1
102
RTVSPropertyOp36
 70
     1
102
RTVSPropertyOp37
 70
     1
102
RTVSPropertyOp38
 70
     1
102
RTVSPropertyOp39
 70
     1
102
RTVSPropertyOp40
 70
     1
102
RTVSPropertyOp41
 70
     1
102
RTVSPropertyOp42
 70
     1
102
RTVSPropertyOp43
 70
     1
102
RTVSPropertyOp44
 70
     1
102
RTVSPropertyOp45
 70
     1
102
RTVSPropertyOp46
 70
     1
102
RTVSPropertyOp47
 70
     1
102
RTVSPropertyOp48
 70
     1
102
RTVSPropertyOp49
 70
     1
102
RTVSPropertyOp50
 70
     1
102
RTVSPropertyOp51
 70
     0
102
RTVSPropertyOp52
 70
     0
102
RTVSPropertyOp53
 70
     1
102
RTVSPropertyOp54
 70
     1
102
RTVSPropertyOp55
 70
     1
102
RTVSPropertyOp56
 70
     1
102
RTVSPropertyOp57
 70
     1
102
RTVSPropertyOp58
 70
     1
102
RTVSPropertyOp59
 70
     1
102
RTVSPropertyOp60
 70
     1
102
RTVSPropertyOp61
 70
     1
102
RTVSPropertyOp62
 70
     1
  0
XRECORD
  5
286
102
{ACAD_REACTORS
330
285
102
}
330
285
100
AcDbXrecord
280
     1
102
RTVSPost2010Prop28
280
     0
102
RTVSPost2010PropOp28
 70
     1
102
RTVSPost2010Prop29
280
     1
102
RTVSPost2010PropOp29
 70
     1
102
RTVSPost2010Prop30
280
     1
102
RTVSPost2010PropOp30
 70
     1
102
RTVSPost2010Prop31
280
     0
102
RTVSPost2010PropOp31
 70
     1
102
RTVSPost2010Prop32
280
     0
102
RTVSPost2010PropOp32
 70
     1
102
RTVSPost2010Prop33
280
     0
102
RTVSPost2010PropOp33
 70
     1
102
RTVSPost2010Prop34
280
     0
102
RTVSPost2010PropOp34
 70
     1
102
RTVSPost2010Prop35
280
     0
102
RTVSPost2010PropOp35
 70
     1
102
RTVSPost2010Prop36
280
     0
102
RTVSPost2010PropOp36
 70
     1
102
RTVSPost2010Prop37
 90
       50
102
RTVSPost2010PropOp37
 70
     1
102
RTVSPost2010Prop38
140
0.0
102
RTVSPost2010PropOp38
 70
     1
102
RTVSPost2010Prop39
140
1.0
102
RTVSPost2010PropOp39
 70
     1
102
RTVSPost2010Prop40
 90
        0
102
RTVSPost2010PropOp40
 70
     1
102
RTVSPost2010Prop41ColorIndex
 90
       18
102
RTVSPost2010Prop41ColorRGB
 90
        0
102
RTVSPost2010PropOp41
 70
     1
102
RTVSPost2010Prop42
 90
       50
102
RTVSPost2010PropOp42
 70
     1
102
RTVSPost2010Prop43
 90
        3
102
RTVSPost2010PropOp43
 70
     1
102
RTVSPost2010Prop44ColorIndex
 90
        5
102
RTVSPost2010Prop44ColorRGB
 90
      255
102
RTVSPost2010PropOp44
 70
     1
102
RTVSPost2010Prop45
280
     0
102
RTVSPost2010PropOp45
 70
     1
102
RTVSPost2010Prop46
 90
       50
102
RTVSPost2010PropOp46
 70
     1
102
RTVSPost2010Prop47
 90
       50
102
RTVSPost2010PropOp47
 70
     1
102
RTVSPost2010Prop48
 90
       50
102
RTVSPost2010PropOp48
 70
     1
102
RTVSPost2010Prop49
280
     0
102
RTVSPost2010PropOp49
 70
     1
102
RTVSPost2010Prop50
 90
       50
102
RTVSPost2010PropOp50
 70
     1
102
RTVSPost2010Prop51ColorIndex
 90
      256
102
RTVSPost2010Prop51ColorRGB
 90
-16777216
102
RTVSPost2010PropOp51
 70
     0
102
RTVSPost2010Prop52
140
1.0
102
RTVSPost2010PropOp52
 70
     0
102
RTVSPost2010Prop53
 90
        2
102
RTVSPost2010PropOp53
 70
     1
102
RTVSPost2010Prop54
  1
strokes_ogs.tif
102
RTVSPost2010PropOp54
 70
     1
102
RTVSPost2010Prop55
280
     0
102
RTVSPost2010PropOp55
 70
     1
102
RTVSPost2010Prop56
140
1.0
102
RTVSPost2010PropOp56
 70
     1
102
RTVSPost2010Prop57
140
1.0
102
RTVSPost2010PropOp57
 70
     1
102
RTVSPropertyOp0
 70
     1
102
RTVSPropertyOp1
 70
     1
102
RTVSPropertyOp2
 70
     1
102
RTVSPropertyOp3
 70
     1
102
RTVSPropertyOp4
 70
     1
102
RTVSPropertyOp5
 70
     1
102
RTVSPropertyOp6
 70
     1
102
RTVSPropertyOp7
 70
     1
102
RTVSPropertyOp8
 70
     1
102
RTVSPropertyOp9
 70
     1
102
RTVSPropertyOp10
 70
     1
102
RTVSPropertyOp11
 70
     1
102
RTVSPropertyOp12
 70
     1
102
RTVSPropertyOp13
 70
     1
102
RTVSPropertyOp14
 70
     1
102
RTVSPropertyOp15
 70
     1
102
RTVSPropertyOp16
 70
     1
102
RTVSPropertyOp17
 70
     1
102
RTVSPropertyOp18
 70
     1
102
RTVSPropertyOp19
 70
     1
102
RTVSPropertyOp20
 70
     1
102
RTVSPropertyOp21
 70
     1
102
RTVSPropertyOp22
 70
     1
102
RTVSPropertyOp23
 70
     1
102
RTVSPropertyOp24
 70
     1
102
RTVSPropertyOp25
 70
     1
102
RTVSPropertyOp26
 70
     1
102
RTVSPropertyOp27
 70
     1
102
RTVSPropertyOp28
 70
     1
102
RTVSPropertyOp29
 70
     1
102
RTVSPropertyOp30
 70
     1
102
RTVSPropertyOp31
 70
     1
102
RTVSPropertyOp32
 70
     1
102
RTVSPropertyOp33
 70
     1
102
RTVSPropertyOp34
 70
     1
102
RTVSPropertyOp35
 70
     1
102
RTVSPropertyOp36
 70
     1
102
RTVSPropertyOp37
 70
     1
102
RTVSPropertyOp38
 70
     1
102
RTVSPropertyOp39
 70
     1
102
RTVSPropertyOp40
 70
     1
102
RTVSPropertyOp41
 70
     1
102
RTVSPropertyOp42
 70
     1
102
RTVSPropertyOp43
 70
     1
102
RTVSPropertyOp44
 70
     1
102
RTVSPropertyOp45
 70
     1
102
RTVSPropertyOp46
 70
     1
102
RTVSPropertyOp47
 70
     1
102
RTVSPropertyOp48
 70
     1
102
RTVSPropertyOp49
 70
     1
102
RTVSPropertyOp50
 70
     1
102
RTVSPropertyOp51
 70
     0
102
RTVSPropertyOp52
 70
     0
102
RTVSPropertyOp53
 70
     1
102
RTVSPropertyOp54
 70
     1
102
RTVSPropertyOp55
 70
     1
102
RTVSPropertyOp56
 70
     1
102
RTVSPropertyOp57
 70
     1
102
RTVSPropertyOp58
 70
     1
102
RTVSPropertyOp59
 70
     1
102
RTVSPropertyOp60
 70
     1
102
RTVSPropertyOp61
 70
     1
102
RTVSPropertyOp62
 70
     1
  0
XRECORD
  5
288
102
{ACAD_REACTORS
330
287
102
}
330
287
100
AcDbXrecord
280
     1
102
RTVSPost2010Prop28
280
     0
102
RTVSPost2010PropOp28
 70
     1
102
RTVSPost2010Prop29
280
     1
102
RTVSPost2010PropOp29
 70
     1
102
RTVSPost2010Prop30
280
     1
102
RTVSPost2010PropOp30
 70
     1
102
RTVSPost2010Prop31
280
     0
102
RTVSPost2010PropOp31
 70
     1
102
RTVSPost2010Prop32
280
     0
102
RTVSPost2010PropOp32
 70
     1
102
RTVSPost2010Prop33
280
     0
102
RTVSPost2010PropOp33
 70
     1
102
RTVSPost2010Prop34
280
     0
102
RTVSPost2010PropOp34
 70
     1
102
RTVSPost2010Prop35
280
     0
102
RTVSPost2010PropOp35
 70
     1
102
RTVSPost2010Prop36
280
     0
102
RTVSPost2010PropOp36
 70
     1
102
RTVSPost2010Prop37
 90
       50
102
RTVSPost2010PropOp37
 70
     1
102
RTVSPost2010Prop38
140
0.0
102
RTVSPost2010PropOp38
 70
     1
102
RTVSPost2010Prop39
140
1.0
102
RTVSPost2010PropOp39
 70
     1
102
RTVSPost2010Prop40
 90
        0
102
RTVSPost2010PropOp40
 70
     1
102
RTVSPost2010Prop41ColorIndex
 90
       18
102
RTVSPost2010Prop41ColorRGB
 90
        0
102
RTVSPost2010PropOp41
 70
     1
102
RTVSPost2010Prop42
 90
       50
102
RTVSPost2010PropOp42
 70
     1
102
RTVSPost2010Prop43
 90
        3
102
RTVSPost2010PropOp43
 70
     1
102
RTVSPost2010Prop44ColorIndex
 90
        5
102
RTVSPost2010Prop44ColorRGB
 90
      255
102
RTVSPost2010PropOp44
 70
     1
102
RTVSPost2010Prop45
280
     0
102
RTVSPost2010PropOp45
 70
     1
102
RTVSPost2010Prop46
 90
       50
102
RTVSPost2010PropOp46
 70
     1
102
RTVSPost2010Prop47
 90
       50
102
RTVSPost2010PropOp47
 70
     1
102
RTVSPost2010Prop48
 90
       50
102
RTVSPost2010PropOp48
 70
     1
102
RTVSPost2010Prop49
280
     0
102
RTVSPost2010PropOp49
 70
     1
102
RTVSPost2010Prop50
 90
       50
102
RTVSPost2010PropOp50
 70
     1
102
RTVSPost2010Prop51ColorIndex
 90
      256
102
RTVSPost2010Prop51ColorRGB
 90
-16777216
102
RTVSPost2010PropOp51
 70
     0
102
RTVSPost2010Prop52
140
1.0
102
RTVSPost2010PropOp52
 70
     0
102
RTVSPost2010Prop53
 90
        2
102
RTVSPost2010PropOp53
 70
     1
102
RTVSPost2010Prop54
  1
strokes_ogs.tif
102
RTVSPost2010PropOp54
 70
     1
102
RTVSPost2010Prop55
280
     0
102
RTVSPost2010PropOp55
 70
     1
102
RTVSPost2010Prop56
140
1.0
102
RTVSPost2010PropOp56
 70
     1
102
RTVSPost2010Prop57
140
1.0
102
RTVSPost2010PropOp57
 70
     1
102
RTVSPropertyOp0
 70
     1
102
RTVSPropertyOp1
 70
     1
102
RTVSPropertyOp2
 70
     1
102
RTVSPropertyOp3
 70
     1
102
RTVSPropertyOp4
 70
     1
102
RTVSPropertyOp5
 70
     1
102
RTVSPropertyOp6
 70
     1
102
RTVSPropertyOp7
 70
     1
102
RTVSPropertyOp8
 70
     1
102
RTVSPropertyOp9
 70
     1
102
RTVSPropertyOp10
 70
     1
102
RTVSPropertyOp11
 70
     1
102
RTVSPropertyOp12
 70
     1
102
RTVSPropertyOp13
 70
     1
102
RTVSPropertyOp14
 70
     1
102
RTVSPropertyOp15
 70
     1
102
RTVSPropertyOp16
 70
     1
102
RTVSPropertyOp17
 70
     1
102
RTVSPropertyOp18
 70
     1
102
RTVSPropertyOp19
 70
     1
102
RTVSPropertyOp20
 70
     1
102
RTVSPropertyOp21
 70
     1
102
RTVSPropertyOp22
 70
     1
102
RTVSPropertyOp23
 70
     1
102
RTVSPropertyOp24
 70
     1
102
RTVSPropertyOp25
 70
     1
102
RTVSPropertyOp26
 70
     1
102
RTVSPropertyOp27
 70
     1
102
RTVSPropertyOp28
 70
     1
102
RTVSPropertyOp29
 70
     1
102
RTVSPropertyOp30
 70
     1
102
RTVSPropertyOp31
 70
     1
102
RTVSPropertyOp32
 70
     1
102
RTVSPropertyOp33
 70
     1
102
RTVSPropertyOp34
 70
     1
102
RTVSPropertyOp35
 70
     1
102
RTVSPropertyOp36
 70
     1
102
RTVSPropertyOp37
 70
     1
102
RTVSPropertyOp38
 70
     1
102
RTVSPropertyOp39
 70
     1
102
RTVSPropertyOp40
 70
     1
102
RTVSPropertyOp41
 70
     1
102
RTVSPropertyOp42
 70
     1
102
RTVSPropertyOp43
 70
     1
102
RTVSPropertyOp44
 70
     1
102
RTVSPropertyOp45
 70
     1
102
RTVSPropertyOp46
 70
     1
102
RTVSPropertyOp47
 70
     1
102
RTVSPropertyOp48
 70
     1
102
RTVSPropertyOp49
 70
     1
102
RTVSPropertyOp50
 70
     1
102
RTVSPropertyOp51
 70
     0
102
RTVSPropertyOp52
 70
     0
102
RTVSPropertyOp53
 70
     1
102
RTVSPropertyOp54
 70
     1
102
RTVSPropertyOp55
 70
     1
102
RTVSPropertyOp56
 70
     1
102
RTVSPropertyOp57
 70
     1
102
RTVSPropertyOp58
 70
     1
102
RTVSPropertyOp59
 70
     1
102
RTVSPropertyOp60
 70
     1
102
RTVSPropertyOp61
 70
     1
102
RTVSPropertyOp62
 70
     1
  0
XRECORD
  5
290
102
{ACAD_REACTORS
330
28F
102
}
330
28F
100
AcDbXrecord
280
     1
102
RTVSPost2010Prop28
280
     0
102
RTVSPost2010PropOp28
 70
     1
102
RTVSPost2010Prop29
280
     1
102
RTVSPost2010PropOp29
 70
     1
102
RTVSPost2010Prop30
280
     1
102
RTVSPost2010PropOp30
 70
     1
102
RTVSPost2010Prop31
280
     0
102
RTVSPost2010PropOp31
 70
     1
102
RTVSPost2010Prop32
280
     0
102
RTVSPost2010PropOp32
 70
     1
102
RTVSPost2010Prop33
280
     0
102
RTVSPost2010PropOp33
 70
     1
102
RTVSPost2010Prop34
280
     0
102
RTVSPost2010PropOp34
 70
     1
102
RTVSPost2010Prop35
280
     0
102
RTVSPost2010PropOp35
 70
     1
102
RTVSPost2010Prop36
280
     0
102
RTVSPost2010PropOp36
 70
     1
102
RTVSPost2010Prop37
 90
       50
102
RTVSPost2010PropOp37
 70
     1
102
RTVSPost2010Prop38
140
0.0
102
RTVSPost2010PropOp38
 70
     1
102
RTVSPost2010Prop39
140
1.0
102
RTVSPost2010PropOp39
 70
     1
102
RTVSPost2010Prop40
 90
        0
102
RTVSPost2010PropOp40
 70
     1
102
RTVSPost2010Prop41ColorIndex
 90
       18
102
RTVSPost2010Prop41ColorRGB
 90
        0
102
RTVSPost2010PropOp41
 70
     1
102
RTVSPost2010Prop42
 90
       50
102
RTVSPost2010PropOp42
 70
     1
102
RTVSPost2010Prop43
 90
        3
102
RTVSPost2010PropOp43
 70
     1
102
RTVSPost2010Prop44ColorIndex
 90
        5
102
RTVSPost2010Prop44ColorRGB
 90
      255
102
RTVSPost2010PropOp44
 70
     1
102
RTVSPost2010Prop45
280
     0
102
RTVSPost2010PropOp45
 70
     1
102
RTVSPost2010Prop46
 90
       50
102
RTVSPost2010PropOp46
 70
     1
102
RTVSPost2010Prop47
 90
       50
102
RTVSPost2010PropOp47
 70
     1
102
RTVSPost2010Prop48
 90
       50
102
RTVSPost2010PropOp48
 70
     1
102
RTVSPost2010Prop49
280
     0
102
RTVSPost2010PropOp49
 70
     1
102
RTVSPost2010Prop50
 90
       50
102
RTVSPost2010PropOp50
 70
     1
102
RTVSPost2010Prop51ColorIndex
 90
      256
102
RTVSPost2010Prop51ColorRGB
 90
-16777216
102
RTVSPost2010PropOp51
 70
     0
102
RTVSPost2010Prop52
140
1.0
102
RTVSPost2010PropOp52
 70
     0
102
RTVSPost2010Prop53
 90
        2
102
RTVSPost2010PropOp53
 70
     1
102
RTVSPost2010Prop54
  1
strokes_ogs.tif
102
RTVSPost2010PropOp54
 70
     1
102
RTVSPost2010Prop55
280
     0
102
RTVSPost2010PropOp55
 70
     1
102
RTVSPost2010Prop56
140
1.0
102
RTVSPost2010PropOp56
 70
     1
102
RTVSPost2010Prop57
140
1.0
102
RTVSPost2010PropOp57
 70
     1
102
RTVSPropertyOp0
 70
     1
102
RTVSPropertyOp1
 70
     1
102
RTVSPropertyOp2
 70
     1
102
RTVSPropertyOp3
 70
     1
102
RTVSPropertyOp4
 70
     1
102
RTVSPropertyOp5
 70
     1
102
RTVSPropertyOp6
 70
     1
102
RTVSPropertyOp7
 70
     1
102
RTVSPropertyOp8
 70
     1
102
RTVSPropertyOp9
 70
     1
102
RTVSPropertyOp10
 70
     1
102
RTVSPropertyOp11
 70
     1
102
RTVSPropertyOp12
 70
     1
102
RTVSPropertyOp13
 70
     1
102
RTVSPropertyOp14
 70
     1
102
RTVSPropertyOp15
 70
     1
102
RTVSPropertyOp16
 70
     1
102
RTVSPropertyOp17
 70
     1
102
RTVSPropertyOp18
 70
     1
102
RTVSPropertyOp19
 70
     1
102
RTVSPropertyOp20
 70
     1
102
RTVSPropertyOp21
 70
     1
102
RTVSPropertyOp22
 70
     1
102
RTVSPropertyOp23
 70
     1
102
RTVSPropertyOp24
 70
     1
102
RTVSPropertyOp25
 70
     1
102
RTVSPropertyOp26
 70
     1
102
RTVSPropertyOp27
 70
     1
102
RTVSPropertyOp28
 70
     1
102
RTVSPropertyOp29
 70
     1
102
RTVSPropertyOp30
 70
     1
102
RTVSPropertyOp31
 70
     1
102
RTVSPropertyOp32
 70
     1
102
RTVSPropertyOp33
 70
     1
102
RTVSPropertyOp34
 70
     1
102
RTVSPropertyOp35
 70
     1
102
RTVSPropertyOp36
 70
     1
102
RTVSPropertyOp37
 70
     1
102
RTVSPropertyOp38
 70
     1
102
RTVSPropertyOp39
 70
     1
102
RTVSPropertyOp40
 70
     1
102
RTVSPropertyOp41
 70
     1
102
RTVSPropertyOp42
 70
     1
102
RTVSPropertyOp43
 70
     1
102
RTVSPropertyOp44
 70
     1
102
RTVSPropertyOp45
 70
     1
102
RTVSPropertyOp46
 70
     1
102
RTVSPropertyOp47
 70
     1
102
RTVSPropertyOp48
 70
     1
102
RTVSPropertyOp49
 70
     1
102
RTVSPropertyOp50
 70
     1
102
RTVSPropertyOp51
 70
     0
102
RTVSPropertyOp52
 70
     0
102
RTVSPropertyOp53
 70
     1
102
RTVSPropertyOp54
 70
     1
102
RTVSPropertyOp55
 70
     1
102
RTVSPropertyOp56
 70
     1
102
RTVSPropertyOp57
 70
     1
102
RTVSPropertyOp58
 70
     1
102
RTVSPropertyOp59
 70
     1
102
RTVSPropertyOp60
 70
     1
102
RTVSPropertyOp61
 70
     1
102
RTVSPropertyOp62
 70
     1
  0
XRECORD
  5
2AC
102
{ACAD_REACTORS
330
2AB
102
}
330
2AB
100
AcDbXrecord
280
     1
102
RTVSPost2010Prop28
280
     0
102
RTVSPost2010PropOp28
 70
     1
102
RTVSPost2010Prop29
280
     1
102
RTVSPost2010PropOp29
 70
     1
102
RTVSPost2010Prop30
280
     1
102
RTVSPost2010PropOp30
 70
     1
102
RTVSPost2010Prop31
280
     0
102
RTVSPost2010PropOp31
 70
     1
102
RTVSPost2010Prop32
280
     0
102
RTVSPost2010PropOp32
 70
     1
102
RTVSPost2010Prop33
280
     0
102
RTVSPost2010PropOp33
 70
     1
102
RTVSPost2010Prop34
280
     0
102
RTVSPost2010PropOp34
 70
     1
102
RTVSPost2010Prop35
280
     0
102
RTVSPost2010PropOp35
 70
     1
102
RTVSPost2010Prop36
280
     0
102
RTVSPost2010PropOp36
 70
     1
102
RTVSPost2010Prop37
 90
       50
102
RTVSPost2010PropOp37
 70
     0
102
RTVSPost2010Prop38
140
0.0
102
RTVSPost2010PropOp38
 70
     0
102
RTVSPost2010Prop39
140
1.0
102
RTVSPost2010PropOp39
 70
     0
102
RTVSPost2010Prop40
 90
        0
102
RTVSPost2010PropOp40
 70
     0
102
RTVSPost2010Prop41ColorIndex
 90
       18
102
RTVSPost2010Prop41ColorRGB
 90
        0
102
RTVSPost2010PropOp41
 70
     0
102
RTVSPost2010Prop42
 90
       50
102
RTVSPost2010PropOp42
 70
     0
102
RTVSPost2010Prop43
 90
        3
102
RTVSPost2010PropOp43
 70
     0
102
RTVSPost2010Prop44ColorIndex
 90
        5
102
RTVSPost2010Prop44ColorRGB
 90
      255
102
RTVSPost2010PropOp44
 70
     0
102
RTVSPost2010Prop45
280
     0
102
RTVSPost2010PropOp45
 70
     1
102
RTVSPost2010Prop46
 90
       50
102
RTVSPost2010PropOp46
 70
     0
102
RTVSPost2010Prop47
 90
       50
102
RTVSPost2010PropOp47
 70
     0
102
RTVSPost2010Prop48
 90
       50
102
RTVSPost2010PropOp48
 70
     0
102
RTVSPost2010Prop49
280
     0
102
RTVSPost2010PropOp49
 70
     1
102
RTVSPost2010Prop50
 90
       50
102
RTVSPost2010PropOp50
 70
     0
102
RTVSPost2010Prop51ColorIndex
 90
      256
102
RTVSPost2010Prop51ColorRGB
 90
-16777216
102
RTVSPost2010PropOp51
 70
     0
102
RTVSPost2010Prop52
140
1.0
102
RTVSPost2010PropOp52
 70
     0
102
RTVSPost2010Prop53
 90
        2
102
RTVSPost2010PropOp53
 70
     0
102
RTVSPost2010Prop54
  1
strokes_ogs.tif
102
RTVSPost2010PropOp54
 70
     0
102
RTVSPost2010Prop55
280
     0
102
RTVSPost2010PropOp55
 70
     1
102
RTVSPost2010Prop56
140
1.0
102
RTVSPost2010PropOp56
 70
     0
102
RTVSPost2010Prop57
140
1.0
102
RTVSPost2010PropOp57
 70
     0
102
RTVSPropertyOp0
 70
     0
102
RTVSPropertyOp1
 70
     0
102
RTVSPropertyOp2
 70
     0
102
RTVSPropertyOp3
 70
     0
102
RTVSPropertyOp4
 70
     0
102
RTVSPropertyOp5
 70
     0
102
RTVSPropertyOp6
 70
     0
102
RTVSPropertyOp7
 70
     0
102
RTVSPropertyOp8
 70
     0
102
RTVSPropertyOp9
 70
     0
102
RTVSPropertyOp10
 70
     0
102
RTVSPropertyOp11
 70
     0
102
RTVSPropertyOp12
 70
     0
102
RTVSPropertyOp13
 70
     0
102
RTVSPropertyOp14
 70
     2
102
RTVSPropertyOp15
 70
     0
102
RTVSPropertyOp16
 70
     0
102
RTVSPropertyOp17
 70
     0
102
RTVSPropertyOp18
 70
     0
102
RTVSPropertyOp19
 70
     0
102
RTVSPropertyOp20
 70
     0
102
RTVSPropertyOp21
 70
     0
102
RTVSPropertyOp22
 70
     0
102
RTVSPropertyOp23
 70
     0
102
RTVSPropertyOp24
 70
     0
102
RTVSPropertyOp25
 70
     0
102
RTVSPropertyOp26
 70
     0
102
RTVSPropertyOp27
 70
     0
102
RTVSPropertyOp28
 70
     1
102
RTVSPropertyOp29
 70
     1
102
RTVSPropertyOp30
 70
     1
102
RTVSPropertyOp31
 70
     1
102
RTVSPropertyOp32
 70
     1
102
RTVSPropertyOp33
 70
     1
102
RTVSPropertyOp34
 70
     1
102
RTVSPropertyOp35
 70
     1
102
RTVSPropertyOp36
 70
     1
102
RTVSPropertyOp37
 70
     0
102
RTVSPropertyOp38
 70
     0
102
RTVSPropertyOp39
 70
     0
102
RTVSPropertyOp40
 70
     0
102
RTVSPropertyOp41
 70
     0
102
RTVSPropertyOp42
 70
     0
102
RTVSPropertyOp43
 70
     0
102
RTVSPropertyOp44
 70
     0
102
RTVSPropertyOp45
 70
     1
102
RTVSPropertyOp46
 70
     0
102
RTVSPropertyOp47
 70
     0
102
RTVSPropertyOp48
 70
     0
102
RTVSPropertyOp49
 70
     1
102
RTVSPropertyOp50
 70
     0
102
RTVSPropertyOp51
 70
     0
102
RTVSPropertyOp52
 70
     0
102
RTVSPropertyOp53
 70
     0
102
RTVSPropertyOp54
 70
     0
102
RTVSPropertyOp55
 70
     1
102
RTVSPropertyOp56
 70
     0
102
RTVSPropertyOp57
 70
     0
102
RTVSPropertyOp58
 70
     0
102
RTVSPropertyOp59
 70
     0
102
RTVSPropertyOp60
 70
     0
102
RTVSPropertyOp61
 70
     0
102
RTVSPropertyOp62
 70
     0
  0
XRECORD
  5
29C
102
{ACAD_REACTORS
330
29B
102
}
330
29B
100
AcDbXrecord
280
     1
102
RTVSPost2010Prop28
280
     0
102
RTVSPost2010PropOp28
 70
     1
102
RTVSPost2010Prop29
280
     1
102
RTVSPost2010PropOp29
 70
     1
102
RTVSPost2010Prop30
280
     1
102
RTVSPost2010PropOp30
 70
     1
102
RTVSPost2010Prop31
280
     0
102
RTVSPost2010PropOp31
 70
     1
102
RTVSPost2010Prop32
280
     0
102
RTVSPost2010PropOp32
 70
     1
102
RTVSPost2010Prop33
280
     0
102
RTVSPost2010PropOp33
 70
     1
102
RTVSPost2010Prop34
280
     0
102
RTVSPost2010PropOp34
 70
     1
102
RTVSPost2010Prop35
280
     0
102
RTVSPost2010PropOp35
 70
     1
102
RTVSPost2010Prop36
280
     0
102
RTVSPost2010PropOp36
 70
     1
102
RTVSPost2010Prop37
 90
       50
102
RTVSPost2010PropOp37
 70
     1
102
RTVSPost2010Prop38
140
0.0
102
RTVSPost2010PropOp38
 70
     1
102
RTVSPost2010Prop39
140
1.0
102
RTVSPost2010PropOp39
 70
     1
102
RTVSPost2010Prop40
 90
        0
102
RTVSPost2010PropOp40
 70
     1
102
RTVSPost2010Prop41ColorIndex
 90
       18
102
RTVSPost2010Prop41ColorRGB
 90
        0
102
RTVSPost2010PropOp41
 70
     1
102
RTVSPost2010Prop42
 90
       50
102
RTVSPost2010PropOp42
 70
     1
102
RTVSPost2010Prop43
 90
        3
102
RTVSPost2010PropOp43
 70
     1
102
RTVSPost2010Prop44ColorIndex
 90
        5
102
RTVSPost2010Prop44ColorRGB
 90
      255
102
RTVSPost2010PropOp44
 70
     1
102
RTVSPost2010Prop45
280
     0
102
RTVSPost2010PropOp45
 70
     1
102
RTVSPost2010Prop46
 90
       50
102
RTVSPost2010PropOp46
 70
     1
102
RTVSPost2010Prop47
 90
       50
102
RTVSPost2010PropOp47
 70
     1
102
RTVSPost2010Prop48
 90
       50
102
RTVSPost2010PropOp48
 70
     1
102
RTVSPost2010Prop49
280
     0
102
RTVSPost2010PropOp49
 70
     1
102
RTVSPost2010Prop50
 90
       50
102
RTVSPost2010PropOp50
 70
     1
102
RTVSPost2010Prop51ColorIndex
 90
      256
102
RTVSPost2010Prop51ColorRGB
 90
-16777216
102
RTVSPost2010PropOp51
 70
     0
102
RTVSPost2010Prop52
140
1.0
102
RTVSPost2010PropOp52
 70
     0
102
RTVSPost2010Prop53
 90
        2
102
RTVSPost2010PropOp53
 70
     1
102
RTVSPost2010Prop54
  1
strokes_ogs.tif
102
RTVSPost2010PropOp54
 70
     1
102
RTVSPost2010Prop55
280
     0
102
RTVSPost2010PropOp55
 70
     1
102
RTVSPost2010Prop56
140
1.0
102
RTVSPost2010PropOp56
 70
     1
102
RTVSPost2010Prop57
140
1.0
102
RTVSPost2010PropOp57
 70
     1
102
RTVSPropertyOp0
 70
     1
102
RTVSPropertyOp1
 70
     1
102
RTVSPropertyOp2
 70
     1
102
RTVSPropertyOp3
 70
     1
102
RTVSPropertyOp4
 70
     1
102
RTVSPropertyOp5
 70
     1
102
RTVSPropertyOp6
 70
     1
102
RTVSPropertyOp7
 70
     1
102
RTVSPropertyOp8
 70
     1
102
RTVSPropertyOp9
 70
     1
102
RTVSPropertyOp10
 70
     1
102
RTVSPropertyOp11
 70
     1
102
RTVSPropertyOp12
 70
     1
102
RTVSPropertyOp13
 70
     1
102
RTVSPropertyOp14
 70
     1
102
RTVSPropertyOp15
 70
     1
102
RTVSPropertyOp16
 70
     1
102
RTVSPropertyOp17
 70
     1
102
RTVSPropertyOp18
 70
     1
102
RTVSPropertyOp19
 70
     1
102
RTVSPropertyOp20
 70
     1
102
RTVSPropertyOp21
 70
     1
102
RTVSPropertyOp22
 70
     1
102
RTVSPropertyOp23
 70
     1
102
RTVSPropertyOp24
 70
     1
102
RTVSPropertyOp25
 70
     1
102
RTVSPropertyOp26
 70
     1
102
RTVSPropertyOp27
 70
     1
102
RTVSPropertyOp28
 70
     1
102
RTVSPropertyOp29
 70
     1
102
RTVSPropertyOp30
 70
     1
102
RTVSPropertyOp31
 70
     1
102
RTVSPropertyOp32
 70
     1
102
RTVSPropertyOp33
 70
     1
102
RTVSPropertyOp34
 70
     1
102
RTVSPropertyOp35
 70
     1
102
RTVSPropertyOp36
 70
     1
102
RTVSPropertyOp37
 70
     1
102
RTVSPropertyOp38
 70
     1
102
RTVSPropertyOp39
 70
     1
102
RTVSPropertyOp40
 70
     1
102
RTVSPropertyOp41
 70
     1
102
RTVSPropertyOp42
 70
     1
102
RTVSPropertyOp43
 70
     1
102
RTVSPropertyOp44
 70
     1
102
RTVSPropertyOp45
 70
     1
102
RTVSPropertyOp46
 70
     1
102
RTVSPropertyOp47
 70
     1
102
RTVSPropertyOp48
 70
     1
102
RTVSPropertyOp49
 70
     1
102
RTVSPropertyOp50
 70
     1
102
RTVSPropertyOp51
 70
     0
102
RTVSPropertyOp52
 70
     0
102
RTVSPropertyOp53
 70
     1
102
RTVSPropertyOp54
 70
     1
102
RTVSPropertyOp55
 70
     1
102
RTVSPropertyOp56
 70
     1
102
RTVSPropertyOp57
 70
     1
102
RTVSPropertyOp58
 70
     1
102
RTVSPropertyOp59
 70
     1
102
RTVSPropertyOp60
 70
     1
102
RTVSPropertyOp61
 70
     1
102
RTVSPropertyOp62
 70
     1
  0
XRECORD
  5
2AE
102
{ACAD_REACTORS
330
2AD
102
}
330
2AD
100
AcDbXrecord
280
     1
102
RTVSPost2010Prop28
280
     0
102
RTVSPost2010PropOp28
 70
     1
102
RTVSPost2010Prop29
280
     1
102
RTVSPost2010PropOp29
 70
     1
102
RTVSPost2010Prop30
280
     1
102
RTVSPost2010PropOp30
 70
     1
102
RTVSPost2010Prop31
280
     0
102
RTVSPost2010PropOp31
 70
     1
102
RTVSPost2010Prop32
280
     0
102
RTVSPost2010PropOp32
 70
     1
102
RTVSPost2010Prop33
280
     0
102
RTVSPost2010PropOp33
 70
     1
102
RTVSPost2010Prop34
280
     0
102
RTVSPost2010PropOp34
 70
     1
102
RTVSPost2010Prop35
280
     0
102
RTVSPost2010PropOp35
 70
     1
102
RTVSPost2010Prop36
280
     0
102
RTVSPost2010PropOp36
 70
     1
102
RTVSPost2010Prop37
 90
       50
102
RTVSPost2010PropOp37
 70
     0
102
RTVSPost2010Prop38
140
0.0
102
RTVSPost2010PropOp38
 70
     0
102
RTVSPost2010Prop39
140
1.0
102
RTVSPost2010PropOp39
 70
     0
102
RTVSPost2010Prop40
 90
        0
102
RTVSPost2010PropOp40
 70
     0
102
RTVSPost2010Prop41ColorIndex
 90
       18
102
RTVSPost2010Prop41ColorRGB
 90
        0
102
RTVSPost2010PropOp41
 70
     0
102
RTVSPost2010Prop42
 90
       50
102
RTVSPost2010PropOp42
 70
     0
102
RTVSPost2010Prop43
 90
        3
102
RTVSPost2010PropOp43
 70
     0
102
RTVSPost2010Prop44ColorIndex
 90
        5
102
RTVSPost2010Prop44ColorRGB
 90
      255
102
RTVSPost2010PropOp44
 70
     0
102
RTVSPost2010Prop45
280
     0
102
RTVSPost2010PropOp45
 70
     1
102
RTVSPost2010Prop46
 90
       50
102
RTVSPost2010PropOp46
 70
     0
102
RTVSPost2010Prop47
 90
       50
102
RTVSPost2010PropOp47
 70
     0
102
RTVSPost2010Prop48
 90
       50
102
RTVSPost2010PropOp48
 70
     0
102
RTVSPost2010Prop49
280
     0
102
RTVSPost2010PropOp49
 70
     1
102
RTVSPost2010Prop50
 90
       50
102
RTVSPost2010PropOp50
 70
     0
102
RTVSPost2010Prop51ColorIndex
 90
      256
102
RTVSPost2010Prop51ColorRGB
 90
-16777216
102
RTVSPost2010PropOp51
 70
     0
102
RTVSPost2010Prop52
140
1.0
102
RTVSPost2010PropOp52
 70
     0
102
RTVSPost2010Prop53
 90
        2
102
RTVSPost2010PropOp53
 70
     0
102
RTVSPost2010Prop54
  1
strokes_ogs.tif
102
RTVSPost2010PropOp54
 70
     0
102
RTVSPost2010Prop55
280
     0
102
RTVSPost2010PropOp55
 70
     1
102
RTVSPost2010Prop56
140
1.0
102
RTVSPost2010PropOp56
 70
     0
102
RTVSPost2010Prop57
140
1.0
102
RTVSPost2010PropOp57
 70
     0
102
RTVSPropertyOp0
 70
     0
102
RTVSPropertyOp1
 70
     0
102
RTVSPropertyOp2
 70
     0
102
RTVSPropertyOp3
 70
     0
102
RTVSPropertyOp4
 70
     0
102
RTVSPropertyOp5
 70
     0
102
RTVSPropertyOp6
 70
     0
102
RTVSPropertyOp7
 70
     0
102
RTVSPropertyOp8
 70
     0
102
RTVSPropertyOp9
 70
     0
102
RTVSPropertyOp10
 70
     0
102
RTVSPropertyOp11
 70
     0
102
RTVSPropertyOp12
 70
     0
102
RTVSPropertyOp13
 70
     0
102
RTVSPropertyOp14
 70
     2
102
RTVSPropertyOp15
 70
     0
102
RTVSPropertyOp16
 70
     0
102
RTVSPropertyOp17
 70
     0
102
RTVSPropertyOp18
 70
     0
102
RTVSPropertyOp19
 70
     0
102
RTVSPropertyOp20
 70
     0
102
RTVSPropertyOp21
 70
     0
102
RTVSPropertyOp22
 70
     0
102
RTVSPropertyOp23
 70
     0
102
RTVSPropertyOp24
 70
     0
102
RTVSPropertyOp25
 70
     0
102
RTVSPropertyOp26
 70
     0
102
RTVSPropertyOp27
 70
     0
102
RTVSPropertyOp28
 70
     1
102
RTVSPropertyOp29
 70
     1
102
RTVSPropertyOp30
 70
     1
102
RTVSPropertyOp31
 70
     1
102
RTVSPropertyOp32
 70
     1
102
RTVSPropertyOp33
 70
     1
102
RTVSPropertyOp34
 70
     1
102
RTVSPropertyOp35
 70
     1
102
RTVSPropertyOp36
 70
     1
102
RTVSPropertyOp37
 70
     0
102
RTVSPropertyOp38
 70
     0
102
RTVSPropertyOp39
 70
     0
102
RTVSPropertyOp40
 70
     0
102
RTVSPropertyOp41
 70
     0
102
RTVSPropertyOp42
 70
     0
102
RTVSPropertyOp43
 70
     0
102
RTVSPropertyOp44
 70
     0
102
RTVSPropertyOp45
 70
     1
102
RTVSPropertyOp46
 70
     0
102
RTVSPropertyOp47
 70
     0
102
RTVSPropertyOp48
 70
     0
102
RTVSPropertyOp49
 70
     1
102
RTVSPropertyOp50
 70
     0
102
RTVSPropertyOp51
 70
     0
102
RTVSPropertyOp52
 70
     0
102
RTVSPropertyOp53
 70
     0
102
RTVSPropertyOp54
 70
     0
102
RTVSPropertyOp55
 70
     1
102
RTVSPropertyOp56
 70
     0
102
RTVSPropertyOp57
 70
     0
102
RTVSPropertyOp58
 70
     0
102
RTVSPropertyOp59
 70
     0
102
RTVSPropertyOp60
 70
     0
102
RTVSPropertyOp61
 70
     0
102
RTVSPropertyOp62
 70
     0
  0
XRECORD
  5
294
102
{ACAD_REACTORS
330
293
102
}
330
293
100
AcDbXrecord
280
     1
102
RTVSPost2010Prop28
280
     0
102
RTVSPost2010PropOp28
 70
     1
102
RTVSPost2010Prop29
280
     1
102
RTVSPost2010PropOp29
 70
     1
102
RTVSPost2010Prop30
280
     1
102
RTVSPost2010PropOp30
 70
     1
102
RTVSPost2010Prop31
280
     0
102
RTVSPost2010PropOp31
 70
     1
102
RTVSPost2010Prop32
280
     0
102
RTVSPost2010PropOp32
 70
     1
102
RTVSPost2010Prop33
280
     0
102
RTVSPost2010PropOp33
 70
     1
102
RTVSPost2010Prop34
280
     0
102
RTVSPost2010PropOp34
 70
     1
102
RTVSPost2010Prop35
280
     0
102
RTVSPost2010PropOp35
 70
     1
102
RTVSPost2010Prop36
280
     0
102
RTVSPost2010PropOp36
 70
     1
102
RTVSPost2010Prop37
 90
       50
102
RTVSPost2010PropOp37
 70
     1
102
RTVSPost2010Prop38
140
0.0
102
RTVSPost2010PropOp38
 70
     1
102
RTVSPost2010Prop39
140
1.0
102
RTVSPost2010PropOp39
 70
     1
102
RTVSPost2010Prop40
 90
        0
102
RTVSPost2010PropOp40
 70
     1
102
RTVSPost2010Prop41ColorIndex
 90
       18
102
RTVSPost2010Prop41ColorRGB
 90
        0
102
RTVSPost2010PropOp41
 70
     1
102
RTVSPost2010Prop42
 90
       50
102
RTVSPost2010PropOp42
 70
     1
102
RTVSPost2010Prop43
 90
        3
102
RTVSPost2010PropOp43
 70
     1
102
RTVSPost2010Prop44ColorIndex
 90
        5
102
RTVSPost2010Prop44ColorRGB
 90
      255
102
RTVSPost2010PropOp44
 70
     1
102
RTVSPost2010Prop45
280
     0
102
RTVSPost2010PropOp45
 70
     1
102
RTVSPost2010Prop46
 90
       50
102
RTVSPost2010PropOp46
 70
     1
102
RTVSPost2010Prop47
 90
       50
102
RTVSPost2010PropOp47
 70
     1
102
RTVSPost2010Prop48
 90
       50
102
RTVSPost2010PropOp48
 70
     1
102
RTVSPost2010Prop49
280
     0
102
RTVSPost2010PropOp49
 70
     1
102
RTVSPost2010Prop50
 90
       50
102
RTVSPost2010PropOp50
 70
     1
102
RTVSPost2010Prop51ColorIndex
 90
      256
102
RTVSPost2010Prop51ColorRGB
 90
-16777216
102
RTVSPost2010PropOp51
 70
     0
102
RTVSPost2010Prop52
140
1.0
102
RTVSPost2010PropOp52
 70
     0
102
RTVSPost2010Prop53
 90
        2
102
RTVSPost2010PropOp53
 70
     1
102
RTVSPost2010Prop54
  1
strokes_ogs.tif
102
RTVSPost2010PropOp54
 70
     1
102
RTVSPost2010Prop55
280
     0
102
RTVSPost2010PropOp55
 70
     1
102
RTVSPost2010Prop56
140
1.0
102
RTVSPost2010PropOp56
 70
     1
102
RTVSPost2010Prop57
140
1.0
102
RTVSPost2010PropOp57
 70
     1
102
RTVSPropertyOp0
 70
     1
102
RTVSPropertyOp1
 70
     1
102
RTVSPropertyOp2
 70
     1
102
RTVSPropertyOp3
 70
     1
102
RTVSPropertyOp4
 70
     1
102
RTVSPropertyOp5
 70
     1
102
RTVSPropertyOp6
 70
     1
102
RTVSPropertyOp7
 70
     1
102
RTVSPropertyOp8
 70
     1
102
RTVSPropertyOp9
 70
     1
102
RTVSPropertyOp10
 70
     1
102
RTVSPropertyOp11
 70
     1
102
RTVSPropertyOp12
 70
     1
102
RTVSPropertyOp13
 70
     1
102
RTVSPropertyOp14
 70
     1
102
RTVSPropertyOp15
 70
     1
102
RTVSPropertyOp16
 70
     1
102
RTVSPropertyOp17
 70
     1
102
RTVSPropertyOp18
 70
     1
102
RTVSPropertyOp19
 70
     1
102
RTVSPropertyOp20
 70
     1
102
RTVSPropertyOp21
 70
     1
102
RTVSPropertyOp22
 70
     1
102
RTVSPropertyOp23
 70
     1
102
RTVSPropertyOp24
 70
     1
102
RTVSPropertyOp25
 70
     1
102
RTVSPropertyOp26
 70
     1
102
RTVSPropertyOp27
 70
     1
102
RTVSPropertyOp28
 70
     1
102
RTVSPropertyOp29
 70
     1
102
RTVSPropertyOp30
 70
     1
102
RTVSPropertyOp31
 70
     1
102
RTVSPropertyOp32
 70
     1
102
RTVSPropertyOp33
 70
     1
102
RTVSPropertyOp34
 70
     1
102
RTVSPropertyOp35
 70
     1
102
RTVSPropertyOp36
 70
     1
102
RTVSPropertyOp37
 70
     1
102
RTVSPropertyOp38
 70
     1
102
RTVSPropertyOp39
 70
     1
102
RTVSPropertyOp40
 70
     1
102
RTVSPropertyOp41
 70
     1
102
RTVSPropertyOp42
 70
     1
102
RTVSPropertyOp43
 70
     1
102
RTVSPropertyOp44
 70
     1
102
RTVSPropertyOp45
 70
     1
102
RTVSPropertyOp46
 70
     1
102
RTVSPropertyOp47
 70
     1
102
RTVSPropertyOp48
 70
     1
102
RTVSPropertyOp49
 70
     1
102
RTVSPropertyOp50
 70
     1
102
RTVSPropertyOp51
 70
     0
102
RTVSPropertyOp52
 70
     0
102
RTVSPropertyOp53
 70
     1
102
RTVSPropertyOp54
 70
     1
102
RTVSPropertyOp55
 70
     1
102
RTVSPropertyOp56
 70
     1
102
RTVSPropertyOp57
 70
     1
102
RTVSPropertyOp58
 70
     1
102
RTVSPropertyOp59
 70
     1
102
RTVSPropertyOp60
 70
     1
102
RTVSPropertyOp61
 70
     1
102
RTVSPropertyOp62
 70
     1
  0
XRECORD
  5
2AA
102
{ACAD_REACTORS
330
2A9
102
}
330
2A9
100
AcDbXrecord
280
     1
102
RTVSPost2010Prop28
280
     0
102
RTVSPost2010PropOp28
 70
     1
102
RTVSPost2010Prop29
280
     1
102
RTVSPost2010PropOp29
 70
     1
102
RTVSPost2010Prop30
280
     1
102
RTVSPost2010PropOp30
 70
     1
102
RTVSPost2010Prop31
280
     0
102
RTVSPost2010PropOp31
 70
     1
102
RTVSPost2010Prop32
280
     0
102
RTVSPost2010PropOp32
 70
     1
102
RTVSPost2010Prop33
280
     0
102
RTVSPost2010PropOp33
 70
     1
102
RTVSPost2010Prop34
280
     0
102
RTVSPost2010PropOp34
 70
     1
102
RTVSPost2010Prop35
280
     0
102
RTVSPost2010PropOp35
 70
     1
102
RTVSPost2010Prop36
280
     0
102
RTVSPost2010PropOp36
 70
     1
102
RTVSPost2010Prop37
 90
       50
102
RTVSPost2010PropOp37
 70
     1
102
RTVSPost2010Prop38
140
0.0
102
RTVSPost2010PropOp38
 70
     1
102
RTVSPost2010Prop39
140
1.0
102
RTVSPost2010PropOp39
 70
     1
102
RTVSPost2010Prop40
 90
        0
102
RTVSPost2010PropOp40
 70
     1
102
RTVSPost2010Prop41ColorIndex
 90
       18
102
RTVSPost2010Prop41ColorRGB
 90
        0
102
RTVSPost2010PropOp41
 70
     1
102
RTVSPost2010Prop42
 90
       50
102
RTVSPost2010PropOp42
 70
     1
102
RTVSPost2010Prop43
 90
        3
102
RTVSPost2010PropOp43
 70
     1
102
RTVSPost2010Prop44ColorIndex
 90
        5
102
RTVSPost2010Prop44ColorRGB
 90
      255
102
RTVSPost2010PropOp44
 70
     1
102
RTVSPost2010Prop45
280
     0
102
RTVSPost2010PropOp45
 70
     1
102
RTVSPost2010Prop46
 90
       50
102
RTVSPost2010PropOp46
 70
     1
102
RTVSPost2010Prop47
 90
       50
102
RTVSPost2010PropOp47
 70
     1
102
RTVSPost2010Prop48
 90
       50
102
RTVSPost2010PropOp48
 70
     1
102
RTVSPost2010Prop49
280
     0
102
RTVSPost2010PropOp49
 70
     1
102
RTVSPost2010Prop50
 90
       50
102
RTVSPost2010PropOp50
 70
     1
102
RTVSPost2010Prop51ColorIndex
 90
      256
102
RTVSPost2010Prop51ColorRGB
 90
-16777216
102
RTVSPost2010PropOp51
 70
     0
102
RTVSPost2010Prop52
140
1.0
102
RTVSPost2010PropOp52
 70
     0
102
RTVSPost2010Prop53
 90
        2
102
RTVSPost2010PropOp53
 70
     1
102
RTVSPost2010Prop54
  1
strokes_ogs.tif
102
RTVSPost2010PropOp54
 70
     1
102
RTVSPost2010Prop55
280
     0
102
RTVSPost2010PropOp55
 70
     1
102
RTVSPost2010Prop56
140
1.0
102
RTVSPost2010PropOp56
 70
     1
102
RTVSPost2010Prop57
140
1.0
102
RTVSPost2010PropOp57
 70
     1
102
RTVSPropertyOp0
 70
     1
102
RTVSPropertyOp1
 70
     1
102
RTVSPropertyOp2
 70
     1
102
RTVSPropertyOp3
 70
     1
102
RTVSPropertyOp4
 70
     1
102
RTVSPropertyOp5
 70
     1
102
RTVSPropertyOp6
 70
     1
102
RTVSPropertyOp7
 70
     1
102
RTVSPropertyOp8
 70
     1
102
RTVSPropertyOp9
 70
     1
102
RTVSPropertyOp10
 70
     1
102
RTVSPropertyOp11
 70
     1
102
RTVSPropertyOp12
 70
     1
102
RTVSPropertyOp13
 70
     1
102
RTVSPropertyOp14
 70
     1
102
RTVSPropertyOp15
 70
     1
102
RTVSPropertyOp16
 70
     1
102
RTVSPropertyOp17
 70
     1
102
RTVSPropertyOp18
 70
     1
102
RTVSPropertyOp19
 70
     1
102
RTVSPropertyOp20
 70
     1
102
RTVSPropertyOp21
 70
     1
102
RTVSPropertyOp22
 70
     1
102
RTVSPropertyOp23
 70
     1
102
RTVSPropertyOp24
 70
     1
102
RTVSPropertyOp25
 70
     1
102
RTVSPropertyOp26
 70
     1
102
RTVSPropertyOp27
 70
     1
102
RTVSPropertyOp28
 70
     1
102
RTVSPropertyOp29
 70
     1
102
RTVSPropertyOp30
 70
     1
102
RTVSPropertyOp31
 70
     1
102
RTVSPropertyOp32
 70
     1
102
RTVSPropertyOp33
 70
     1
102
RTVSPropertyOp34
 70
     1
102
RTVSPropertyOp35
 70
     1
102
RTVSPropertyOp36
 70
     1
102
RTVSPropertyOp37
 70
     1
102
RTVSPropertyOp38
 70
     1
102
RTVSPropertyOp39
 70
     1
102
RTVSPropertyOp40
 70
     1
102
RTVSPropertyOp41
 70
     1
102
RTVSPropertyOp42
 70
     1
102
RTVSPropertyOp43
 70
     1
102
RTVSPropertyOp44
 70
     1
102
RTVSPropertyOp45
 70
     1
102
RTVSPropertyOp46
 70
     1
102
RTVSPropertyOp47
 70
     1
102
RTVSPropertyOp48
 70
     1
102
RTVSPropertyOp49
 70
     1
102
RTVSPropertyOp50
 70
     1
102
RTVSPropertyOp51
 70
     0
102
RTVSPropertyOp52
 70
     0
102
RTVSPropertyOp53
 70
     1
102
RTVSPropertyOp54
 70
     1
102
RTVSPropertyOp55
 70
     1
102
RTVSPropertyOp56
 70
     1
102
RTVSPropertyOp57
 70
     1
102
RTVSPropertyOp58
 70
     1
102
RTVSPropertyOp59
 70
     1
102
RTVSPropertyOp60
 70
     1
102
RTVSPropertyOp61
 70
     1
102
RTVSPropertyOp62
 70
     1
  0
XRECORD
  5
2A8
102
{ACAD_REACTORS
330
2A7
102
}
330
2A7
100
AcDbXrecord
280
     1
102
RTVSPost2010Prop28
280
     0
102
RTVSPost2010PropOp28
 70
     1
102
RTVSPost2010Prop29
280
     1
102
RTVSPost2010PropOp29
 70
     1
102
RTVSPost2010Prop30
280
     1
102
RTVSPost2010PropOp30
 70
     1
102
RTVSPost2010Prop31
280
     0
102
RTVSPost2010PropOp31
 70
     1
102
RTVSPost2010Prop32
280
     0
102
RTVSPost2010PropOp32
 70
     1
102
RTVSPost2010Prop33
280
     0
102
RTVSPost2010PropOp33
 70
     1
102
RTVSPost2010Prop34
280
     0
102
RTVSPost2010PropOp34
 70
     1
102
RTVSPost2010Prop35
280
     0
102
RTVSPost2010PropOp35
 70
     1
102
RTVSPost2010Prop36
280
     0
102
RTVSPost2010PropOp36
 70
     1
102
RTVSPost2010Prop37
 90
       50
102
RTVSPost2010PropOp37
 70
     1
102
RTVSPost2010Prop38
140
0.0
102
RTVSPost2010PropOp38
 70
     1
102
RTVSPost2010Prop39
140
1.0
102
RTVSPost2010PropOp39
 70
     1
102
RTVSPost2010Prop40
 90
        0
102
RTVSPost2010PropOp40
 70
     1
102
RTVSPost2010Prop41ColorIndex
 90
       18
102
RTVSPost2010Prop41ColorRGB
 90
        0
102
RTVSPost2010PropOp41
 70
     1
102
RTVSPost2010Prop42
 90
       50
102
RTVSPost2010PropOp42
 70
     1
102
RTVSPost2010Prop43
 90
        3
102
RTVSPost2010PropOp43
 70
     1
102
RTVSPost2010Prop44ColorIndex
 90
        5
102
RTVSPost2010Prop44ColorRGB
 90
      255
102
RTVSPost2010PropOp44
 70
     1
102
RTVSPost2010Prop45
280
     0
102
RTVSPost2010PropOp45
 70
     1
102
RTVSPost2010Prop46
 90
       50
102
RTVSPost2010PropOp46
 70
     1
102
RTVSPost2010Prop47
 90
       50
102
RTVSPost2010PropOp47
 70
     1
102
RTVSPost2010Prop48
 90
       50
102
RTVSPost2010PropOp48
 70
     1
102
RTVSPost2010Prop49
280
     0
102
RTVSPost2010PropOp49
 70
     1
102
RTVSPost2010Prop50
 90
       50
102
RTVSPost2010PropOp50
 70
     1
102
RTVSPost2010Prop51ColorIndex
 90
      256
102
RTVSPost2010Prop51ColorRGB
 90
-16777216
102
RTVSPost2010PropOp51
 70
     0
102
RTVSPost2010Prop52
140
1.0
102
RTVSPost2010PropOp52
 70
     0
102
RTVSPost2010Prop53
 90
        2
102
RTVSPost2010PropOp53
 70
     1
102
RTVSPost2010Prop54
  1
strokes_ogs.tif
102
RTVSPost2010PropOp54
 70
     1
102
RTVSPost2010Prop55
280
     0
102
RTVSPost2010PropOp55
 70
     1
102
RTVSPost2010Prop56
140
1.0
102
RTVSPost2010PropOp56
 70
     1
102
RTVSPost2010Prop57
140
1.0
102
RTVSPost2010PropOp57
 70
     1
102
RTVSPropertyOp0
 70
     1
102
RTVSPropertyOp1
 70
     1
102
RTVSPropertyOp2
 70
     1
102
RTVSPropertyOp3
 70
     1
102
RTVSPropertyOp4
 70
     1
102
RTVSPropertyOp5
 70
     1
102
RTVSPropertyOp6
 70
     1
102
RTVSPropertyOp7
 70
     1
102
RTVSPropertyOp8
 70
     1
102
RTVSPropertyOp9
 70
     1
102
RTVSPropertyOp10
 70
     1
102
RTVSPropertyOp11
 70
     1
102
RTVSPropertyOp12
 70
     1
102
RTVSPropertyOp13
 70
     1
102
RTVSPropertyOp14
 70
     1
102
RTVSPropertyOp15
 70
     1
102
RTVSPropertyOp16
 70
     1
102
RTVSPropertyOp17
 70
     1
102
RTVSPropertyOp18
 70
     1
102
RTVSPropertyOp19
 70
     1
102
RTVSPropertyOp20
 70
     1
102
RTVSPropertyOp21
 70
     1
102
RTVSPropertyOp22
 70
     1
102
RTVSPropertyOp23
 70
     1
102
RTVSPropertyOp24
 70
     1
102
RTVSPropertyOp25
 70
     1
102
RTVSPropertyOp26
 70
     1
102
RTVSPropertyOp27
 70
     1
102
RTVSPropertyOp28
 70
     1
102
RTVSPropertyOp29
 70
     1
102
RTVSPropertyOp30
 70
     1
102
RTVSPropertyOp31
 70
     1
102
RTVSPropertyOp32
 70
     1
102
RTVSPropertyOp33
 70
     1
102
RTVSPropertyOp34
 70
     1
102
RTVSPropertyOp35
 70
     1
102
RTVSPropertyOp36
 70
     1
102
RTVSPropertyOp37
 70
     1
102
RTVSPropertyOp38
 70
     1
102
RTVSPropertyOp39
 70
     1
102
RTVSPropertyOp40
 70
     1
102
RTVSPropertyOp41
 70
     1
102
RTVSPropertyOp42
 70
     1
102
RTVSPropertyOp43
 70
     1
102
RTVSPropertyOp44
 70
     1
102
RTVSPropertyOp45
 70
     1
102
RTVSPropertyOp46
 70
     1
102
RTVSPropertyOp47
 70
     1
102
RTVSPropertyOp48
 70
     1
102
RTVSPropertyOp49
 70
     1
102
RTVSPropertyOp50
 70
     1
102
RTVSPropertyOp51
 70
     0
102
RTVSPropertyOp52
 70
     0
102
RTVSPropertyOp53
 70
     1
102
RTVSPropertyOp54
 70
     1
102
RTVSPropertyOp55
 70
     1
102
RTVSPropertyOp56
 70
     1
102
RTVSPropertyOp57
 70
     1
102
RTVSPropertyOp58
 70
     1
102
RTVSPropertyOp59
 70
     1
102
RTVSPropertyOp60
 70
     1
102
RTVSPropertyOp61
 70
     1
102
RTVSPropertyOp62
 70
     1
  0
XRECORD
  5
2A2
102
{ACAD_REACTORS
330
2A1
102
}
330
2A1
100
AcDbXrecord
280
     1
102
RTVSPost2010Prop28
280
     0
102
RTVSPost2010PropOp28
 70
     1
102
RTVSPost2010Prop29
280
     1
102
RTVSPost2010PropOp29
 70
     1
102
RTVSPost2010Prop30
280
     1
102
RTVSPost2010PropOp30
 70
     1
102
RTVSPost2010Prop31
280
     0
102
RTVSPost2010PropOp31
 70
     1
102
RTVSPost2010Prop32
280
     0
102
RTVSPost2010PropOp32
 70
     1
102
RTVSPost2010Prop33
280
     0
102
RTVSPost2010PropOp33
 70
     1
102
RTVSPost2010Prop34
280
     0
102
RTVSPost2010PropOp34
 70
     1
102
RTVSPost2010Prop35
280
     0
102
RTVSPost2010PropOp35
 70
     1
102
RTVSPost2010Prop36
280
     0
102
RTVSPost2010PropOp36
 70
     1
102
RTVSPost2010Prop37
 90
       50
102
RTVSPost2010PropOp37
 70
     1
102
RTVSPost2010Prop38
140
0.0
102
RTVSPost2010PropOp38
 70
     1
102
RTVSPost2010Prop39
140
1.0
102
RTVSPost2010PropOp39
 70
     1
102
RTVSPost2010Prop40
 90
        0
102
RTVSPost2010PropOp40
 70
     1
102
RTVSPost2010Prop41ColorIndex
 90
       18
102
RTVSPost2010Prop41ColorRGB
 90
        0
102
RTVSPost2010PropOp41
 70
     1
102
RTVSPost2010Prop42
 90
       50
102
RTVSPost2010PropOp42
 70
     1
102
RTVSPost2010Prop43
 90
        3
102
RTVSPost2010PropOp43
 70
     1
102
RTVSPost2010Prop44ColorIndex
 90
        5
102
RTVSPost2010Prop44ColorRGB
 90
      255
102
RTVSPost2010PropOp44
 70
     1
102
RTVSPost2010Prop45
280
     0
102
RTVSPost2010PropOp45
 70
     1
102
RTVSPost2010Prop46
 90
       50
102
RTVSPost2010PropOp46
 70
     1
102
RTVSPost2010Prop47
 90
       50
102
RTVSPost2010PropOp47
 70
     1
102
RTVSPost2010Prop48
 90
       50
102
RTVSPost2010PropOp48
 70
     1
102
RTVSPost2010Prop49
280
     0
102
RTVSPost2010PropOp49
 70
     1
102
RTVSPost2010Prop50
 90
       50
102
RTVSPost2010PropOp50
 70
     1
102
RTVSPost2010Prop51ColorIndex
 90
      256
102
RTVSPost2010Prop51ColorRGB
 90
-16777216
102
RTVSPost2010PropOp51
 70
     0
102
RTVSPost2010Prop52
140
1.0
102
RTVSPost2010PropOp52
 70
     0
102
RTVSPost2010Prop53
 90
        2
102
RTVSPost2010PropOp53
 70
     1
102
RTVSPost2010Prop54
  1
strokes_ogs.tif
102
RTVSPost2010PropOp54
 70
     1
102
RTVSPost2010Prop55
280
     0
102
RTVSPost2010PropOp55
 70
     1
102
RTVSPost2010Prop56
140
1.0
102
RTVSPost2010PropOp56
 70
     1
102
RTVSPost2010Prop57
140
1.0
102
RTVSPost2010PropOp57
 70
     1
102
RTVSPropertyOp0
 70
     1
102
RTVSPropertyOp1
 70
     1
102
RTVSPropertyOp2
 70
     1
102
RTVSPropertyOp3
 70
     1
102
RTVSPropertyOp4
 70
     1
102
RTVSPropertyOp5
 70
     1
102
RTVSPropertyOp6
 70
     1
102
RTVSPropertyOp7
 70
     1
102
RTVSPropertyOp8
 70
     1
102
RTVSPropertyOp9
 70
     1
102
RTVSPropertyOp10
 70
     1
102
RTVSPropertyOp11
 70
     1
102
RTVSPropertyOp12
 70
     1
102
RTVSPropertyOp13
 70
     1
102
RTVSPropertyOp14
 70
     1
102
RTVSPropertyOp15
 70
     1
102
RTVSPropertyOp16
 70
     1
102
RTVSPropertyOp17
 70
     1
102
RTVSPropertyOp18
 70
     1
102
RTVSPropertyOp19
 70
     1
102
RTVSPropertyOp20
 70
     1
102
RTVSPropertyOp21
 70
     1
102
RTVSPropertyOp22
 70
     1
102
RTVSPropertyOp23
 70
     1
102
RTVSPropertyOp24
 70
     1
102
RTVSPropertyOp25
 70
     1
102
RTVSPropertyOp26
 70
     1
102
RTVSPropertyOp27
 70
     1
102
RTVSPropertyOp28
 70
     1
102
RTVSPropertyOp29
 70
     1
102
RTVSPropertyOp30
 70
     1
102
RTVSPropertyOp31
 70
     1
102
RTVSPropertyOp32
 70
     1
102
RTVSPropertyOp33
 70
     1
102
RTVSPropertyOp34
 70
     1
102
RTVSPropertyOp35
 70
     1
102
RTVSPropertyOp36
 70
     1
102
RTVSPropertyOp37
 70
     1
102
RTVSPropertyOp38
 70
     1
102
RTVSPropertyOp39
 70
     1
102
RTVSPropertyOp40
 70
     1
102
RTVSPropertyOp41
 70
     1
102
RTVSPropertyOp42
 70
     1
102
RTVSPropertyOp43
 70
     1
102
RTVSPropertyOp44
 70
     1
102
RTVSPropertyOp45
 70
     1
102
RTVSPropertyOp46
 70
     1
102
RTVSPropertyOp47
 70
     1
102
RTVSPropertyOp48
 70
     1
102
RTVSPropertyOp49
 70
     1
102
RTVSPropertyOp50
 70
     1
102
RTVSPropertyOp51
 70
     0
102
RTVSPropertyOp52
 70
     0
102
RTVSPropertyOp53
 70
     1
102
RTVSPropertyOp54
 70
     1
102
RTVSPropertyOp55
 70
     1
102
RTVSPropertyOp56
 70
     1
102
RTVSPropertyOp57
 70
     1
102
RTVSPropertyOp58
 70
     1
102
RTVSPropertyOp59
 70
     1
102
RTVSPropertyOp60
 70
     1
102
RTVSPropertyOp61
 70
     1
102
RTVSPropertyOp62
 70
     1
  0
XRECORD
  5
2A4
102
{ACAD_REACTORS
330
2A3
102
}
330
2A3
100
AcDbXrecord
280
     1
102
RTVSPost2010Prop28
280
     0
102
RTVSPost2010PropOp28
 70
     1
102
RTVSPost2010Prop29
280
     1
102
RTVSPost2010PropOp29
 70
     1
102
RTVSPost2010Prop30
280
     1
102
RTVSPost2010PropOp30
 70
     1
102
RTVSPost2010Prop31
280
     0
102
RTVSPost2010PropOp31
 70
     1
102
RTVSPost2010Prop32
280
     0
102
RTVSPost2010PropOp32
 70
     1
102
RTVSPost2010Prop33
280
     0
102
RTVSPost2010PropOp33
 70
     1
102
RTVSPost2010Prop34
280
     0
102
RTVSPost2010PropOp34
 70
     1
102
RTVSPost2010Prop35
280
     0
102
RTVSPost2010PropOp35
 70
     1
102
RTVSPost2010Prop36
280
     0
102
RTVSPost2010PropOp36
 70
     1
102
RTVSPost2010Prop37
 90
       50
102
RTVSPost2010PropOp37
 70
     1
102
RTVSPost2010Prop38
140
0.0
102
RTVSPost2010PropOp38
 70
     1
102
RTVSPost2010Prop39
140
1.0
102
RTVSPost2010PropOp39
 70
     1
102
RTVSPost2010Prop40
 90
        0
102
RTVSPost2010PropOp40
 70
     1
102
RTVSPost2010Prop41ColorIndex
 90
       18
102
RTVSPost2010Prop41ColorRGB
 90
        0
102
RTVSPost2010PropOp41
 70
     1
102
RTVSPost2010Prop42
 90
       50
102
RTVSPost2010PropOp42
 70
     1
102
RTVSPost2010Prop43
 90
        3
102
RTVSPost2010PropOp43
 70
     1
102
RTVSPost2010Prop44ColorIndex
 90
        5
102
RTVSPost2010Prop44ColorRGB
 90
      255
102
RTVSPost2010PropOp44
 70
     1
102
RTVSPost2010Prop45
280
     0
102
RTVSPost2010PropOp45
 70
     1
102
RTVSPost2010Prop46
 90
       50
102
RTVSPost2010PropOp46
 70
     1
102
RTVSPost2010Prop47
 90
       50
102
RTVSPost2010PropOp47
 70
     1
102
RTVSPost2010Prop48
 90
       50
102
RTVSPost2010PropOp48
 70
     1
102
RTVSPost2010Prop49
280
     0
102
RTVSPost2010PropOp49
 70
     1
102
RTVSPost2010Prop50
 90
       50
102
RTVSPost2010PropOp50
 70
     1
102
RTVSPost2010Prop51ColorIndex
 90
      256
102
RTVSPost2010Prop51ColorRGB
 90
-16777216
102
RTVSPost2010PropOp51
 70
     0
102
RTVSPost2010Prop52
140
1.0
102
RTVSPost2010PropOp52
 70
     0
102
RTVSPost2010Prop53
 90
        2
102
RTVSPost2010PropOp53
 70
     1
102
RTVSPost2010Prop54
  1
strokes_ogs.tif
102
RTVSPost2010PropOp54
 70
     1
102
RTVSPost2010Prop55
280
     0
102
RTVSPost2010PropOp55
 70
     1
102
RTVSPost2010Prop56
140
1.0
102
RTVSPost2010PropOp56
 70
     1
102
RTVSPost2010Prop57
140
1.0
102
RTVSPost2010PropOp57
 70
     1
102
RTVSPropertyOp0
 70
     1
102
RTVSPropertyOp1
 70
     1
102
RTVSPropertyOp2
 70
     1
102
RTVSPropertyOp3
 70
     1
102
RTVSPropertyOp4
 70
     1
102
RTVSPropertyOp5
 70
     1
102
RTVSPropertyOp6
 70
     1
102
RTVSPropertyOp7
 70
     1
102
RTVSPropertyOp8
 70
     1
102
RTVSPropertyOp9
 70
     1
102
RTVSPropertyOp10
 70
     1
102
RTVSPropertyOp11
 70
     1
102
RTVSPropertyOp12
 70
     1
102
RTVSPropertyOp13
 70
     1
102
RTVSPropertyOp14
 70
     1
102
RTVSPropertyOp15
 70
     1
102
RTVSPropertyOp16
 70
     1
102
RTVSPropertyOp17
 70
     1
102
RTVSPropertyOp18
 70
     1
102
RTVSPropertyOp19
 70
     1
102
RTVSPropertyOp20
 70
     1
102
RTVSPropertyOp21
 70
     1
102
RTVSPropertyOp22
 70
     1
102
RTVSPropertyOp23
 70
     1
102
RTVSPropertyOp24
 70
     1
102
RTVSPropertyOp25
 70
     1
102
RTVSPropertyOp26
 70
     1
102
RTVSPropertyOp27
 70
     1
102
RTVSPropertyOp28
 70
     1
102
RTVSPropertyOp29
 70
     1
102
RTVSPropertyOp30
 70
     1
102
RTVSPropertyOp31
 70
     1
102
RTVSPropertyOp32
 70
     1
102
RTVSPropertyOp33
 70
     1
102
RTVSPropertyOp34
 70
     1
102
RTVSPropertyOp35
 70
     1
102
RTVSPropertyOp36
 70
     1
102
RTVSPropertyOp37
 70
     1
102
RTVSPropertyOp38
 70
     1
102
RTVSPropertyOp39
 70
     1
102
RTVSPropertyOp40
 70
     1
102
RTVSPropertyOp41
 70
     1
102
RTVSPropertyOp42
 70
     1
102
RTVSPropertyOp43
 70
     1
102
RTVSPropertyOp44
 70
     1
102
RTVSPropertyOp45
 70
     1
102
RTVSPropertyOp46
 70
     1
102
RTVSPropertyOp47
 70
     1
102
RTVSPropertyOp48
 70
     1
102
RTVSPropertyOp49
 70
     1
102
RTVSPropertyOp50
 70
     1
102
RTVSPropertyOp51
 70
     0
102
RTVSPropertyOp52
 70
     0
102
RTVSPropertyOp53
 70
     1
102
RTVSPropertyOp54
 70
     1
102
RTVSPropertyOp55
 70
     1
102
RTVSPropertyOp56
 70
     1
102
RTVSPropertyOp57
 70
     1
102
RTVSPropertyOp58
 70
     1
102
RTVSPropertyOp59
 70
     1
102
RTVSPropertyOp60
 70
     1
102
RTVSPropertyOp61
 70
     1
102
RTVSPropertyOp62
 70
     1
  0
XRECORD
  5
29A
102
{ACAD_REACTORS
330
299
102
}
330
299
100
AcDbXrecord
280
     1
102
RTVSPost2010Prop28
280
     0
102
RTVSPost2010PropOp28
 70
     1
102
RTVSPost2010Prop29
280
     1
102
RTVSPost2010PropOp29
 70
     1
102
RTVSPost2010Prop30
280
     1
102
RTVSPost2010PropOp30
 70
     1
102
RTVSPost2010Prop31
280
     0
102
RTVSPost2010PropOp31
 70
     1
102
RTVSPost2010Prop32
280
     0
102
RTVSPost2010PropOp32
 70
     1
102
RTVSPost2010Prop33
280
     0
102
RTVSPost2010PropOp33
 70
     1
102
RTVSPost2010Prop34
280
     0
102
RTVSPost2010PropOp34
 70
     1
102
RTVSPost2010Prop35
280
     0
102
RTVSPost2010PropOp35
 70
     1
102
RTVSPost2010Prop36
280
     0
102
RTVSPost2010PropOp36
 70
     1
102
RTVSPost2010Prop37
 90
       50
102
RTVSPost2010PropOp37
 70
     1
102
RTVSPost2010Prop38
140
0.0
102
RTVSPost2010PropOp38
 70
     1
102
RTVSPost2010Prop39
140
1.0
102
RTVSPost2010PropOp39
 70
     1
102
RTVSPost2010Prop40
 90
        0
102
RTVSPost2010PropOp40
 70
     1
102
RTVSPost2010Prop41ColorIndex
 90
       18
102
RTVSPost2010Prop41ColorRGB
 90
        0
102
RTVSPost2010PropOp41
 70
     1
102
RTVSPost2010Prop42
 90
       50
102
RTVSPost2010PropOp42
 70
     1
102
RTVSPost2010Prop43
 90
        3
102
RTVSPost2010PropOp43
 70
     1
102
RTVSPost2010Prop44ColorIndex
 90
        5
102
RTVSPost2010Prop44ColorRGB
 90
      255
102
RTVSPost2010PropOp44
 70
     1
102
RTVSPost2010Prop45
280
     0
102
RTVSPost2010PropOp45
 70
     1
102
RTVSPost2010Prop46
 90
       50
102
RTVSPost2010PropOp46
 70
     1
102
RTVSPost2010Prop47
 90
       50
102
RTVSPost2010PropOp47
 70
     1
102
RTVSPost2010Prop48
 90
       50
102
RTVSPost2010PropOp48
 70
     1
102
RTVSPost2010Prop49
280
     0
102
RTVSPost2010PropOp49
 70
     1
102
RTVSPost2010Prop50
 90
       50
102
RTVSPost2010PropOp50
 70
     1
102
RTVSPost2010Prop51ColorIndex
 90
      256
102
RTVSPost2010Prop51ColorRGB
 90
-16777216
102
RTVSPost2010PropOp51
 70
     0
102
RTVSPost2010Prop52
140
1.0
102
RTVSPost2010PropOp52
 70
     0
102
RTVSPost2010Prop53
 90
        2
102
RTVSPost2010PropOp53
 70
     1
102
RTVSPost2010Prop54
  1
strokes_ogs.tif
102
RTVSPost2010PropOp54
 70
     1
102
RTVSPost2010Prop55
280
     0
102
RTVSPost2010PropOp55
 70
     1
102
RTVSPost2010Prop56
140
1.0
102
RTVSPost2010PropOp56
 70
     1
102
RTVSPost2010Prop57
140
1.0
102
RTVSPost2010PropOp57
 70
     1
102
RTVSPropertyOp0
 70
     1
102
RTVSPropertyOp1
 70
     1
102
RTVSPropertyOp2
 70
     1
102
RTVSPropertyOp3
 70
     1
102
RTVSPropertyOp4
 70
     1
102
RTVSPropertyOp5
 70
     1
102
RTVSPropertyOp6
 70
     1
102
RTVSPropertyOp7
 70
     1
102
RTVSPropertyOp8
 70
     1
102
RTVSPropertyOp9
 70
     1
102
RTVSPropertyOp10
 70
     1
102
RTVSPropertyOp11
 70
     1
102
RTVSPropertyOp12
 70
     1
102
RTVSPropertyOp13
 70
     1
102
RTVSPropertyOp14
 70
     1
102
RTVSPropertyOp15
 70
     1
102
RTVSPropertyOp16
 70
     1
102
RTVSPropertyOp17
 70
     1
102
RTVSPropertyOp18
 70
     1
102
RTVSPropertyOp19
 70
     1
102
RTVSPropertyOp20
 70
     1
102
RTVSPropertyOp21
 70
     1
102
RTVSPropertyOp22
 70
     1
102
RTVSPropertyOp23
 70
     1
102
RTVSPropertyOp24
 70
     1
102
RTVSPropertyOp25
 70
     1
102
RTVSPropertyOp26
 70
     1
102
RTVSPropertyOp27
 70
     1
102
RTVSPropertyOp28
 70
     1
102
RTVSPropertyOp29
 70
     1
102
RTVSPropertyOp30
 70
     1
102
RTVSPropertyOp31
 70
     1
102
RTVSPropertyOp32
 70
     1
102
RTVSPropertyOp33
 70
     1
102
RTVSPropertyOp34
 70
     1
102
RTVSPropertyOp35
 70
     1
102
RTVSPropertyOp36
 70
     1
102
RTVSPropertyOp37
 70
     1
102
RTVSPropertyOp38
 70
     1
102
RTVSPropertyOp39
 70
     1
102
RTVSPropertyOp40
 70
     1
102
RTVSPropertyOp41
 70
     1
102
RTVSPropertyOp42
 70
     1
102
RTVSPropertyOp43
 70
     1
102
RTVSPropertyOp44
 70
     1
102
RTVSPropertyOp45
 70
     1
102
RTVSPropertyOp46
 70
     1
102
RTVSPropertyOp47
 70
     1
102
RTVSPropertyOp48
 70
     1
102
RTVSPropertyOp49
 70
     1
102
RTVSPropertyOp50
 70
     1
102
RTVSPropertyOp51
 70
     0
102
RTVSPropertyOp52
 70
     0
102
RTVSPropertyOp53
 70
     1
102
RTVSPropertyOp54
 70
     1
102
RTVSPropertyOp55
 70
     1
102
RTVSPropertyOp56
 70
     1
102
RTVSPropertyOp57
 70
     1
102
RTVSPropertyOp58
 70
     1
102
RTVSPropertyOp59
 70
     1
102
RTVSPropertyOp60
 70
     1
102
RTVSPropertyOp61
 70
     1
102
RTVSPropertyOp62
 70
     1
  0
XRECORD
  5
28E
102
{ACAD_REACTORS
330
28D
102
}
330
28D
100
AcDbXrecord
280
     1
102
RTVSPost2010Prop28
280
     0
102
RTVSPost2010PropOp28
 70
     1
102
RTVSPost2010Prop29
280
     1
102
RTVSPost2010PropOp29
 70
     1
102
RTVSPost2010Prop30
280
     1
102
RTVSPost2010PropOp30
 70
     1
102
RTVSPost2010Prop31
280
     0
102
RTVSPost2010PropOp31
 70
     1
102
RTVSPost2010Prop32
280
     0
102
RTVSPost2010PropOp32
 70
     1
102
RTVSPost2010Prop33
280
     0
102
RTVSPost2010PropOp33
 70
     1
102
RTVSPost2010Prop34
280
     0
102
RTVSPost2010PropOp34
 70
     1
102
RTVSPost2010Prop35
280
     0
102
RTVSPost2010PropOp35
 70
     1
102
RTVSPost2010Prop36
280
     0
102
RTVSPost2010PropOp36
 70
     1
102
RTVSPost2010Prop37
 90
       50
102
RTVSPost2010PropOp37
 70
     1
102
RTVSPost2010Prop38
140
0.0
102
RTVSPost2010PropOp38
 70
     1
102
RTVSPost2010Prop39
140
1.0
102
RTVSPost2010PropOp39
 70
     1
102
RTVSPost2010Prop40
 90
        0
102
RTVSPost2010PropOp40
 70
     1
102
RTVSPost2010Prop41ColorIndex
 90
       18
102
RTVSPost2010Prop41ColorRGB
 90
        0
102
RTVSPost2010PropOp41
 70
     1
102
RTVSPost2010Prop42
 90
       50
102
RTVSPost2010PropOp42
 70
     1
102
RTVSPost2010Prop43
 90
        3
102
RTVSPost2010PropOp43
 70
     1
102
RTVSPost2010Prop44ColorIndex
 90
        5
102
RTVSPost2010Prop44ColorRGB
 90
      255
102
RTVSPost2010PropOp44
 70
     1
102
RTVSPost2010Prop45
280
     0
102
RTVSPost2010PropOp45
 70
     1
102
RTVSPost2010Prop46
 90
       50
102
RTVSPost2010PropOp46
 70
     1
102
RTVSPost2010Prop47
 90
       50
102
RTVSPost2010PropOp47
 70
     1
102
RTVSPost2010Prop48
 90
       50
102
RTVSPost2010PropOp48
 70
     1
102
RTVSPost2010Prop49
280
     0
102
RTVSPost2010PropOp49
 70
     1
102
RTVSPost2010Prop50
 90
       50
102
RTVSPost2010PropOp50
 70
     1
102
RTVSPost2010Prop51ColorIndex
 90
      256
102
RTVSPost2010Prop51ColorRGB
 90
-16777216
102
RTVSPost2010PropOp51
 70
     0
102
RTVSPost2010Prop52
140
1.0
102
RTVSPost2010PropOp52
 70
     0
102
RTVSPost2010Prop53
 90
        2
102
RTVSPost2010PropOp53
 70
     1
102
RTVSPost2010Prop54
  1
strokes_ogs.tif
102
RTVSPost2010PropOp54
 70
     1
102
RTVSPost2010Prop55
280
     0
102
RTVSPost2010PropOp55
 70
     1
102
RTVSPost2010Prop56
140
1.0
102
RTVSPost2010PropOp56
 70
     1
102
RTVSPost2010Prop57
140
1.0
102
RTVSPost2010PropOp57
 70
     1
102
RTVSPropertyOp0
 70
     1
102
RTVSPropertyOp1
 70
     1
102
RTVSPropertyOp2
 70
     1
102
RTVSPropertyOp3
 70
     1
102
RTVSPropertyOp4
 70
     1
102
RTVSPropertyOp5
 70
     1
102
RTVSPropertyOp6
 70
     1
102
RTVSPropertyOp7
 70
     1
102
RTVSPropertyOp8
 70
     1
102
RTVSPropertyOp9
 70
     1
102
RTVSPropertyOp10
 70
     1
102
RTVSPropertyOp11
 70
     1
102
RTVSPropertyOp12
 70
     1
102
RTVSPropertyOp13
 70
     1
102
RTVSPropertyOp14
 70
     1
102
RTVSPropertyOp15
 70
     1
102
RTVSPropertyOp16
 70
     1
102
RTVSPropertyOp17
 70
     1
102
RTVSPropertyOp18
 70
     1
102
RTVSPropertyOp19
 70
     1
102
RTVSPropertyOp20
 70
     1
102
RTVSPropertyOp21
 70
     1
102
RTVSPropertyOp22
 70
     1
102
RTVSPropertyOp23
 70
     1
102
RTVSPropertyOp24
 70
     1
102
RTVSPropertyOp25
 70
     1
102
RTVSPropertyOp26
 70
     1
102
RTVSPropertyOp27
 70
     1
102
RTVSPropertyOp28
 70
     1
102
RTVSPropertyOp29
 70
     1
102
RTVSPropertyOp30
 70
     1
102
RTVSPropertyOp31
 70
     1
102
RTVSPropertyOp32
 70
     1
102
RTVSPropertyOp33
 70
     1
102
RTVSPropertyOp34
 70
     1
102
RTVSPropertyOp35
 70
     1
102
RTVSPropertyOp36
 70
     1
102
RTVSPropertyOp37
 70
     1
102
RTVSPropertyOp38
 70
     1
102
RTVSPropertyOp39
 70
     1
102
RTVSPropertyOp40
 70
     1
102
RTVSPropertyOp41
 70
     1
102
RTVSPropertyOp42
 70
     1
102
RTVSPropertyOp43
 70
     1
102
RTVSPropertyOp44
 70
     1
102
RTVSPropertyOp45
 70
     1
102
RTVSPropertyOp46
 70
     1
102
RTVSPropertyOp47
 70
     1
102
RTVSPropertyOp48
 70
     1
102
RTVSPropertyOp49
 70
     1
102
RTVSPropertyOp50
 70
     1
102
RTVSPropertyOp51
 70
     0
102
RTVSPropertyOp52
 70
     0
102
RTVSPropertyOp53
 70
     1
102
RTVSPropertyOp54
 70
     1
102
RTVSPropertyOp55
 70
     1
102
RTVSPropertyOp56
 70
     1
102
RTVSPropertyOp57
 70
     1
102
RTVSPropertyOp58
 70
     1
102
RTVSPropertyOp59
 70
     1
102
RTVSPropertyOp60
 70
     1
102
RTVSPropertyOp61
 70
     1
102
RTVSPropertyOp62
 70
     1
  0
XRECORD
  5
2A6
102
{ACAD_REACTORS
330
2A5
102
}
330
2A5
100
AcDbXrecord
280
     1
102
RTVSPost2010Prop28
280
     0
102
RTVSPost2010PropOp28
 70
     1
102
RTVSPost2010Prop29
280
     1
102
RTVSPost2010PropOp29
 70
     1
102
RTVSPost2010Prop30
280
     1
102
RTVSPost2010PropOp30
 70
     1
102
RTVSPost2010Prop31
280
     0
102
RTVSPost2010PropOp31
 70
     1
102
RTVSPost2010Prop32
280
     0
102
RTVSPost2010PropOp32
 70
     1
102
RTVSPost2010Prop33
280
     0
102
RTVSPost2010PropOp33
 70
     1
102
RTVSPost2010Prop34
280
     0
102
RTVSPost2010PropOp34
 70
     1
102
RTVSPost2010Prop35
280
     0
102
RTVSPost2010PropOp35
 70
     1
102
RTVSPost2010Prop36
280
     0
102
RTVSPost2010PropOp36
 70
     1
102
RTVSPost2010Prop37
 90
       50
102
RTVSPost2010PropOp37
 70
     1
102
RTVSPost2010Prop38
140
0.0
102
RTVSPost2010PropOp38
 70
     1
102
RTVSPost2010Prop39
140
1.0
102
RTVSPost2010PropOp39
 70
     1
102
RTVSPost2010Prop40
 90
        0
102
RTVSPost2010PropOp40
 70
     1
102
RTVSPost2010Prop41ColorIndex
 90
       18
102
RTVSPost2010Prop41ColorRGB
 90
        0
102
RTVSPost2010PropOp41
 70
     1
102
RTVSPost2010Prop42
 90
       50
102
RTVSPost2010PropOp42
 70
     1
102
RTVSPost2010Prop43
 90
        3
102
RTVSPost2010PropOp43
 70
     1
102
RTVSPost2010Prop44ColorIndex
 90
        5
102
RTVSPost2010Prop44ColorRGB
 90
      255
102
RTVSPost2010PropOp44
 70
     1
102
RTVSPost2010Prop45
280
     0
102
RTVSPost2010PropOp45
 70
     1
102
RTVSPost2010Prop46
 90
       50
102
RTVSPost2010PropOp46
 70
     1
102
RTVSPost2010Prop47
 90
       50
102
RTVSPost2010PropOp47
 70
     1
102
RTVSPost2010Prop48
 90
       50
102
RTVSPost2010PropOp48
 70
     1
102
RTVSPost2010Prop49
280
     0
102
RTVSPost2010PropOp49
 70
     1
102
RTVSPost2010Prop50
 90
       50
102
RTVSPost2010PropOp50
 70
     1
102
RTVSPost2010Prop51ColorIndex
 90
      256
102
RTVSPost2010Prop51ColorRGB
 90
-16777216
102
RTVSPost2010PropOp51
 70
     0
102
RTVSPost2010Prop52
140
1.0
102
RTVSPost2010PropOp52
 70
     0
102
RTVSPost2010Prop53
 90
        2
102
RTVSPost2010PropOp53
 70
     1
102
RTVSPost2010Prop54
  1
strokes_ogs.tif
102
RTVSPost2010PropOp54
 70
     1
102
RTVSPost2010Prop55
280
     0
102
RTVSPost2010PropOp55
 70
     1
102
RTVSPost2010Prop56
140
1.0
102
RTVSPost2010PropOp56
 70
     1
102
RTVSPost2010Prop57
140
1.0
102
RTVSPost2010PropOp57
 70
     1
102
RTVSPropertyOp0
 70
     1
102
RTVSPropertyOp1
 70
     1
102
RTVSPropertyOp2
 70
     1
102
RTVSPropertyOp3
 70
     1
102
RTVSPropertyOp4
 70
     1
102
RTVSPropertyOp5
 70
     1
102
RTVSPropertyOp6
 70
     1
102
RTVSPropertyOp7
 70
     1
102
RTVSPropertyOp8
 70
     1
102
RTVSPropertyOp9
 70
     1
102
RTVSPropertyOp10
 70
     1
102
RTVSPropertyOp11
 70
     1
102
RTVSPropertyOp12
 70
     1
102
RTVSPropertyOp13
 70
     1
102
RTVSPropertyOp14
 70
     1
102
RTVSPropertyOp15
 70
     1
102
RTVSPropertyOp16
 70
     1
102
RTVSPropertyOp17
 70
     1
102
RTVSPropertyOp18
 70
     1
102
RTVSPropertyOp19
 70
     1
102
RTVSPropertyOp20
 70
     1
102
RTVSPropertyOp21
 70
     1
102
RTVSPropertyOp22
 70
     1
102
RTVSPropertyOp23
 70
     1
102
RTVSPropertyOp24
 70
     1
102
RTVSPropertyOp25
 70
     1
102
RTVSPropertyOp26
 70
     1
102
RTVSPropertyOp27
 70
     1
102
RTVSPropertyOp28
 70
     1
102
RTVSPropertyOp29
 70
     1
102
RTVSPropertyOp30
 70
     1
102
RTVSPropertyOp31
 70
     1
102
RTVSPropertyOp32
 70
     1
102
RTVSPropertyOp33
 70
     1
102
RTVSPropertyOp34
 70
     1
102
RTVSPropertyOp35
 70
     1
102
RTVSPropertyOp36
 70
     1
102
RTVSPropertyOp37
 70
     1
102
RTVSPropertyOp38
 70
     1
102
RTVSPropertyOp39
 70
     1
102
RTVSPropertyOp40
 70
     1
102
RTVSPropertyOp41
 70
     1
102
RTVSPropertyOp42
 70
     1
102
RTVSPropertyOp43
 70
     1
102
RTVSPropertyOp44
 70
     1
102
RTVSPropertyOp45
 70
     1
102
RTVSPropertyOp46
 70
     1
102
RTVSPropertyOp47
 70
     1
102
RTVSPropertyOp48
 70
     1
102
RTVSPropertyOp49
 70
     1
102
RTVSPropertyOp50
 70
     1
102
RTVSPropertyOp51
 70
     0
102
RTVSPropertyOp52
 70
     0
102
RTVSPropertyOp53
 70
     1
102
RTVSPropertyOp54
 70
     1
102
RTVSPropertyOp55
 70
     1
102
RTVSPropertyOp56
 70
     1
102
RTVSPropertyOp57
 70
     1
102
RTVSPropertyOp58
 70
     1
102
RTVSPropertyOp59
 70
     1
102
RTVSPropertyOp60
 70
     1
102
RTVSPropertyOp61
 70
     1
102
RTVSPropertyOp62
 70
     1
  0
ENDSEC
  0
EOF
